  0
SECTION
  2
HEADER
  9
$ACADVER
  1
AC1032
  9
$ACADMAINTVER
 90
        4
  9
$DWGCODEPAGE
  3
ANSI_932
  9
$LASTSAVEDBY
  1
vsl-0021
  9
$REQUIREDVERSIONS
160
                 0
  9
$INSBASE
 10
0.0
 20
0.0
 30
0.0
  9
$EXTMIN
 10
3592.439522588095
 20
-340.0659104492356
 30
-91.05934263440392
  9
$EXTMAX
 10
4821.563897588094
 20
520.028464550765
 30
46.5067028905314
  9
$LIMMIN
 10
53.4000000000008
 20
15.0
  9
$LIMMAX
 10
1245.0
 20
876.0
  9
$ORTHOMODE
 70
     0
  9
$REGENMODE
 70
     1
  9
$FILLMODE
 70
     1
  9
$QTEXTMODE
 70
     0
  9
$MIRRTEXT
 70
     1
  9
$LTSCALE
 40
1.0
  9
$ATTMODE
 70
     1
  9
$TEXTSIZE
 40
16.0
  9
$TRACEWID
 40
9.0
  9
$TEXTSTYLE
  7
TITLE
  9
$CLAYER
  8
構造
  9
$CELTYPE
  6
BYLAYER
  9
$CECOLOR
 62
   256
  9
$CELTSCALE
 40
1.0
  9
$DISPSILH
 70
     0
  9
$DIMSCALE
 40
3.0
  9
$DIMASZ
 40
1.5
  9
$DIMEXO
 40
0.625
  9
$DIMDLI
 40
3.75
  9
$DIMRND
 40
0.0
  9
$DIMDLE
 40
0.0
  9
$DIMEXE
 40
1.25
  9
$DIMTP
 40
0.0
  9
$DIMTM
 40
0.0
  9
$DIMTXT
 40
2.0
  9
$DIMCEN
 40
2.5
  9
$DIMTSZ
 40
0.0
  9
$DIMTOL
 70
     0
  9
$DIMLIM
 70
     0
  9
$DIMTIH
 70
     0
  9
$DIMTOH
 70
     0
  9
$DIMSE1
 70
     0
  9
$DIMSE2
 70
     0
  9
$DIMTAD
 70
     1
  9
$DIMZIN
 70
     8
  9
$DIMBLK
  1

  9
$DIMASO
 70
     1
  9
$DIMSHO
 70
     1
  9
$DIMPOST
  1

  9
$DIMAPOST
  1

  9
$DIMALT
 70
     0
  9
$DIMALTD
 70
     4
  9
$DIMALTF
 40
0.0394
  9
$DIMLFAC
 40
1.0
  9
$DIMTOFL
 70
     1
  9
$DIMTVP
 40
0.0
  9
$DIMTIX
 70
     0
  9
$DIMSOXD
 70
     0
  9
$DIMSAH
 70
     0
  9
$DIMBLK1
  1

  9
$DIMBLK2
  1

  9
$DIMSTYLE
  2
STANDARD-15
  9
$DIMCLRD
 70
     0
  9
$DIMCLRE
 70
     0
  9
$DIMCLRT
 70
     3
  9
$DIMTFAC
 40
1.0
  9
$DIMGAP
 40
0.625
  9
$DIMJUST
 70
     0
  9
$DIMSD1
 70
     0
  9
$DIMSD2
 70
     0
  9
$DIMTOLJ
 70
     1
  9
$DIMTZIN
 70
     0
  9
$DIMALTZ
 70
     0
  9
$DIMALTTZ
 70
     0
  9
$DIMUPT
 70
     0
  9
$DIMDEC
 70
     1
  9
$DIMTDEC
 70
     3
  9
$DIMALTU
 70
     8
  9
$DIMALTTD
 70
     4
  9
$DIMTXSTY
  7
STANDARD
  9
$DIMAUNIT
 70
     0
  9
$DIMADEC
 70
     0
  9
$DIMALTRND
 40
0.0
  9
$DIMAZIN
 70
     0
  9
$DIMDSEP
 70
    46
  9
$DIMATFIT
 70
     3
  9
$DIMFRAC
 70
     0
  9
$DIMLDRBLK
  1

  9
$DIMLUNIT
 70
     2
  9
$DIMLWD
 70
    -2
  9
$DIMLWE
 70
    -2
  9
$DIMTMOVE
 70
     0
  9
$DIMFXL
 40
1.0
  9
$DIMFXLON
 70
     0
  9
$DIMJOGANG
 40
0.7853981633974483
  9
$DIMTFILL
 70
     0
  9
$DIMTFILLCLR
 70
     0
  9
$DIMARCSYM
 70
     0
  9
$DIMLTYPE
  6

  9
$DIMLTEX1
  6

  9
$DIMLTEX2
  6

  9
$DIMTXTDIRECTION
 70
     0
  9
$LUNITS
 70
     2
  9
$LUPREC
 70
     3
  9
$SKETCHINC
 40
1.0
  9
$FILLETRAD
 40
1.0
  9
$AUNITS
 70
     0
  9
$AUPREC
 70
     0
  9
$MENU
  1
acad
  9
$ELEVATION
 40
0.0
  9
$PELEVATION
 40
0.0
  9
$THICKNESS
 40
0.0
  9
$LIMCHECK
 70
     0
  9
$CHAMFERA
 40
0.0
  9
$CHAMFERB
 40
0.0
  9
$CHAMFERC
 40
20.0
  9
$CHAMFERD
 40
0.0
  9
$SKPOLY
 70
     0
  9
$TDCREATE
 40
2451538.62412581
  9
$TDUCREATE
 40
2451538.24912581
  9
$TDUPDATE
 40
2460080.597347327
  9
$TDUUPDATE
 40
2460080.222347327
  9
$TDINDWG
 40
1.9466751389
  9
$TDUSRTIMER
 40
0.0002389815
  9
$USRTIMER
 70
     1
  9
$ANGBASE
 50
0.0
  9
$ANGDIR
 70
     0
  9
$PDMODE
 70
     3
  9
$PDSIZE
 40
0.0
  9
$PLINEWID
 40
2.0
  9
$SPLFRAME
 70
     0
  9
$SPLINETYPE
 70
     6
  9
$SPLINESEGS
 70
     8
  9
$HANDSEED
  5
6264
  9
$SURFTAB1
 70
     6
  9
$SURFTAB2
 70
     6
  9
$SURFTYPE
 70
     6
  9
$SURFU
 70
     6
  9
$SURFV
 70
     6
  9
$UCSBASE
  2

  9
$UCSNAME
  2

  9
$UCSORG
 10
0.0
 20
0.0
 30
0.0
  9
$UCSXDIR
 10
1.0
 20
0.0
 30
0.0
  9
$UCSYDIR
 10
0.0
 20
1.0
 30
0.0
  9
$UCSORTHOREF
  2

  9
$UCSORTHOVIEW
 70
     0
  9
$UCSORGTOP
 10
0.0
 20
0.0
 30
0.0
  9
$UCSORGBOTTOM
 10
0.0
 20
0.0
 30
0.0
  9
$UCSORGLEFT
 10
0.0
 20
0.0
 30
0.0
  9
$UCSORGRIGHT
 10
0.0
 20
0.0
 30
0.0
  9
$UCSORGFRONT
 10
0.0
 20
0.0
 30
0.0
  9
$UCSORGBACK
 10
0.0
 20
0.0
 30
0.0
  9
$PUCSBASE
  2

  9
$PUCSNAME
  2

  9
$PUCSORG
 10
0.0
 20
0.0
 30
0.0
  9
$PUCSXDIR
 10
1.0
 20
0.0
 30
0.0
  9
$PUCSYDIR
 10
0.0
 20
1.0
 30
0.0
  9
$PUCSORTHOREF
  2

  9
$PUCSORTHOVIEW
 70
     0
  9
$PUCSORGTOP
 10
0.0
 20
0.0
 30
0.0
  9
$PUCSORGBOTTOM
 10
0.0
 20
0.0
 30
0.0
  9
$PUCSORGLEFT
 10
0.0
 20
0.0
 30
0.0
  9
$PUCSORGRIGHT
 10
0.0
 20
0.0
 30
0.0
  9
$PUCSORGFRONT
 10
0.0
 20
0.0
 30
0.0
  9
$PUCSORGBACK
 10
0.0
 20
0.0
 30
0.0
  9
$USERI1
 70
     0
  9
$USERI2
 70
     0
  9
$USERI3
 70
     0
  9
$USERI4
 70
     0
  9
$USERI5
 70
     0
  9
$USERR1
 40
0.0
  9
$USERR2
 40
0.0
  9
$USERR3
 40
0.0
  9
$USERR4
 40
0.0
  9
$USERR5
 40
0.0
  9
$WORLDVIEW
 70
     1
  9
$SHADEDGE
 70
     3
  9
$SHADEDIF
 70
    70
  9
$TILEMODE
 70
     1
  9
$MAXACTVP
 70
    48
  9
$PINSBASE
 10
0.0
 20
0.0
 30
0.0
  9
$PLIMCHECK
 70
     0
  9
$PEXTMIN
 10
-0.0632546915808234
 20
-0.0883821335984294
 30
-0.0015258207003583
  9
$PEXTMAX
 10
16.35542433523028
 20
11.52075652803319
 30
0.0000000349246037
  9
$PLIMMIN
 10
-0.1249995194082185
 20
-0.1249999981226884
  9
$PLIMMAX
 10
16.41666682686393
 20
11.56916653077434
  9
$UNITMODE
 70
     0
  9
$VISRETAIN
 70
     1
  9
$PLINEGEN
 70
     0
  9
$PSLTSCALE
 70
     1
  9
$TREEDEPTH
 70
  3020
  9
$CMLSTYLE
  2
STANDARD
  9
$CMLJUST
 70
     0
  9
$CMLSCALE
 40
20.0
  9
$PROXYGRAPHICS
 70
     1
  9
$MEASUREMENT
 70
     0
  9
$CELWEIGHT
370
    -1
  9
$ENDCAPS
280
     0
  9
$JOINSTYLE
280
     0
  9
$LWDISPLAY
290
     0
  9
$INSUNITS
 70
     0
  9
$HYPERLINKBASE
  1

  9
$STYLESHEET
  1

  9
$XEDIT
290
     1
  9
$CEPSNTYPE
380
     0
  9
$PSTYLEMODE
290
     1
  9
$FINGERPRINTGUID
  2
{C7AB486C-0BFA-4CA8-9027-AA3A15BC490D}
  9
$VERSIONGUID
  2
{F6BB9A8C-49DA-4F9A-BBBD-53A775D42D57}
  9
$EXTNAMES
290
     1
  9
$PSVPSCALE
 40
0.0
  9
$OLESTARTUP
290
     0
  9
$SORTENTS
280
   127
  9
$INDEXCTL
280
     0
  9
$HIDETEXT
280
     0
  9
$XCLIPFRAME
280
     2
  9
$HALOGAP
280
     0
  9
$OBSCOLOR
 70
   257
  9
$OBSLTYPE
280
     0
  9
$INTERSECTIONDISPLAY
280
     0
  9
$INTERSECTIONCOLOR
 70
   257
  9
$DIMASSOC
280
     1
  9
$PROJECTNAME
  1

  9
$CAMERADISPLAY
290
     0
  9
$LENSLENGTH
 40
50.0
  9
$CAMERAHEIGHT
 40
0.0
  9
$STEPSPERSEC
 40
2.0
  9
$STEPSIZE
 40
6.0
  9
$3DDWFPREC
 40
2.0
  9
$PSOLWIDTH
 40
0.25
  9
$PSOLHEIGHT
 40
4.0
  9
$LOFTANG1
 40
1.570796326794897
  9
$LOFTANG2
 40
1.570796326794897
  9
$LOFTMAG1
 40
0.0
  9
$LOFTMAG2
 40
0.0
  9
$LOFTPARAM
 70
     7
  9
$LOFTNORMALS
280
     1
  9
$LATITUDE
 40
37.795
  9
$LONGITUDE
 40
-122.394
  9
$NORTHDIRECTION
 40
0.0
  9
$TIMEZONE
 70
 -8000
  9
$LIGHTGLYPHDISPLAY
280
     1
  9
$TILEMODELIGHTSYNCH
280
     1
  9
$SOLIDHIST
280
     0
  9
$SHOWHIST
280
     1
  9
$DWFFRAME
280
     2
  9
$DGNFRAME
280
     2
  9
$REALWORLDSCALE
290
     1
  9
$INTERFERECOLOR
 62
   256
  9
$CSHADOW
280
     0
  9
$SHADOWPLANELOCATION
 40
0.0
  0
ENDSEC
  0
SECTION
  2
CLASSES
  0
CLASS
  1
DICTIONARYVAR
  2
AcDbDictionaryVar
  3
ObjectDBX Classes
 90
        0
 91
        3
280
     0
281
     0
  0
CLASS
  1
LWPOLYLINE
  2
AcDbPolyline
  3
ObjectDBX Classes
 90
        0
 91
        1
280
     0
281
     1
  0
CLASS
  1
HATCH
  2
AcDbHatch
  3
ObjectDBX Classes
 90
        0
 91
        1
280
     0
281
     1
  0
CLASS
  1
SORTENTSTABLE
  2
AcDbSortentsTable
  3
ObjectDBX Classes
 90
        0
 91
        3
280
     0
281
     0
  0
CLASS
  1
ACDBDICTIONARYWDFLT
  2
AcDbDictionaryWithDefault
  3
ObjectDBX Classes
 90
        0
 91
        3
280
     0
281
     0
  0
CLASS
  1
ACDBPLACEHOLDER
  2
AcDbPlaceHolder
  3
ObjectDBX Classes
 90
        0
 91
        1
280
     0
281
     0
  0
CLASS
  1
LAYOUT
  2
AcDbLayout
  3
ObjectDBX Classes
 90
        0
 91
        1
280
     0
281
     0
  0
CLASS
  1
MATERIAL
  2
AcDbMaterial
  3
ObjectDBX Classes
 90
     1153
 91
        3
280
     0
281
     0
  0
CLASS
  1
VISUALSTYLE
  2
AcDbVisualStyle
  3
ObjectDBX Classes
 90
     4095
 91
        3
280
     0
281
     0
  0
CLASS
  1
TABLESTYLE
  2
AcDbTableStyle
  3
ObjectDBX Classes
 90
     4095
 91
        3
280
     0
281
     0
  0
CLASS
  1
SCALE
  2
AcDbScale
  3
ObjectDBX Classes
 90
     1153
 91
        3
280
     0
281
     0
  0
CLASS
  1
MLEADERSTYLE
  2
AcDbMLeaderStyle
  3
ACDB_MLEADERSTYLE_CLASS
 90
     4095
 91
        3
280
     0
281
     0
  0
CLASS
  1
CELLSTYLEMAP
  2
AcDbCellStyleMap
  3
ObjectDBX Classes
 90
     1152
 91
        3
280
     0
281
     0
  0
ENDSEC
  0
SECTION
  2
TABLES
  0
TABLE
  2
VPORT
  5
14
330
0
100
AcDbSymbolTable
 70
     1
  0
VPORT
  5
725
330
14
100
AcDbSymbolTableRecord
100
AcDbViewportTableRecord
  2
*Active
 70
     0
 10
0.0
 20
0.0
 11
1.0
 21
1.0
 12
4293.147066353525
 22
56.74009759656974
 13
0.0
 23
0.0
 14
10.0
 24
10.0
 15
10.0
 25
10.0
 16
0.0
 26
0.0
 36
1.0
 17
0.0
 27
0.0
 37
0.0
 40
1071.135918820189
 41
2.270321361058601
 42
50.0
 43
0.0
 44
0.0
 50
0.0
 51
0.0
 71
     0
 72
   100
 73
     1
 74
     1
 75
     0
 76
     0
 77
     0
 78
     0
281
     0
 65
     1
110
0.0
120
0.0
130
0.0
111
1.0
121
0.0
131
0.0
112
0.0
122
1.0
132
0.0
 79
     0
146
0.0
348
733
 60
     3
 61
     5
292
     1
282
     1
141
0.0
142
0.0
 63
   256
  0
ENDTAB
  0
TABLE
  2
LTYPE
  5
F
330
0
100
AcDbSymbolTable
 70
     3
  0
LTYPE
  5
10
330
F
100
AcDbSymbolTableRecord
100
AcDbLinetypeTableRecord
  2
BYBLOCK
 70
     0
  3

 72
    65
 73
     0
 40
0.0
  0
LTYPE
  5
11
330
F
100
AcDbSymbolTableRecord
100
AcDbLinetypeTableRecord
  2
BYLAYER
 70
     0
  3

 72
    65
 73
     0
 40
0.0
  0
LTYPE
  5
7
330
F
100
AcDbSymbolTableRecord
100
AcDbLinetypeTableRecord
  2
CONTINUOUS
 70
     0
  3
Solid line
 72
    65
 73
     0
 40
0.0
  0
LTYPE
  5
61
330
F
100
AcDbSymbolTableRecord
100
AcDbLinetypeTableRecord
  2
CENTER
 70
     0
  3
Center ____ _ ____ _ ____ _ ____ _ ____ _ ____
 72
    65
 73
     4
 40
50.8
 49
31.75
 74
     0
 49
-6.35
 74
     0
 49
6.35
 74
     0
 49
-6.35
 74
     0
  0
LTYPE
  5
54
330
F
100
AcDbSymbolTableRecord
100
AcDbLinetypeTableRecord
  2
HIDDEN2
 70
     0
  3
Hidden (.5x) _ _ _ _ _ _ _ _ _ _ _ _ _ _ _ _ _
 72
    65
 73
     2
 40
4.762499999999999
 49
3.175
 74
     0
 49
-1.5875
 74
     0
  0
ENDTAB
  0
TABLE
  2
LAYER
  5
C
102
{ACAD_XDICTIONARY
360
747
102
}
330
0
100
AcDbSymbolTable
 70
     8
  0
LAYER
  5
6
102
{ACAD_XDICTIONARY
360
5066
102
}
330
C
100
AcDbSymbolTableRecord
100
AcDbLayerTableRecord
  2
0
 70
     0
 62
     7
  6
CONTINUOUS
370
    -3
390
71B
347
72C
348
0
  0
LAYER
  5
1CD
102
{ACAD_XDICTIONARY
360
5068
102
}
330
C
100
AcDbSymbolTableRecord
100
AcDbLayerTableRecord
  2
枠
 70
     0
 62
     7
  6
CONTINUOUS
370
    -3
390
71B
347
72C
348
0
  0
LAYER
  5
10B
102
{ACAD_XDICTIONARY
360
506A
102
}
330
C
100
AcDbSymbolTableRecord
100
AcDbLayerTableRecord
  2
寸法
 70
     0
 62
     5
  6
CONTINUOUS
370
    -3
390
71B
347
72C
348
0
  0
LAYER
  5
105
102
{ACAD_XDICTIONARY
360
506C
102
}
330
C
100
AcDbSymbolTableRecord
100
AcDbLayerTableRecord
  2
文字
 70
     0
 62
     5
  6
CONTINUOUS
370
    -3
390
71B
347
72C
348
0
  0
LAYER
  5
60
102
{ACAD_XDICTIONARY
360
506E
102
}
330
C
100
AcDbSymbolTableRecord
100
AcDbLayerTableRecord
  2
中心線
 70
     0
 62
     1
  6
CENTER
370
    -3
390
71B
347
72C
348
0
  0
LAYER
  5
21
102
{ACAD_XDICTIONARY
360
5070
102
}
330
C
100
AcDbSymbolTableRecord
100
AcDbLayerTableRecord
  2
構造
 70
     0
 62
     7
  6
CONTINUOUS
370
    -3
390
71B
347
72C
348
0
  0
LAYER
  5
F6
102
{ACAD_XDICTIONARY
360
5072
102
}
330
C
100
AcDbSymbolTableRecord
100
AcDbLayerTableRecord
  2
TITLE
 70
     0
 62
     4
  6
CONTINUOUS
370
    -3
390
71B
347
72C
348
0
  0
LAYER
  5
746
102
{ACAD_XDICTIONARY
360
5074
102
}
330
C
100
AcDbSymbolTableRecord
100
AcDbLayerTableRecord
  2
JISSEN
 70
     0
 62
     7
  6
CONTINUOUS
370
    -3
390
71B
347
72C
348
0
  0
ENDTAB
  0
TABLE
  2
STYLE
  5
D
330
0
100
AcDbSymbolTable
 70
     5
  0
STYLE
  5
E
330
D
100
AcDbSymbolTableRecord
100
AcDbTextStyleTableRecord
  2
STANDARD
 70
     0
 40
0.0
 41
1.0
 50
0.0
 71
     0
 42
16.0
  3
simplex.shx
  4
bigfont.shx
  0
STYLE
  5
1D
330
D
100
AcDbSymbolTableRecord
100
AcDbTextStyleTableRecord
  2
TITLE
 70
     0
 40
0.0
 41
1.0
 50
0.0
 71
     0
 42
16.0
  3
msgothic.ttc
  4

1001
ACAD
1000
MS PGothic
1071
    32818
  0
STYLE
  5
F7
330
D
100
AcDbSymbolTableRecord
100
AcDbTextStyleTableRecord
  2
STYLE1
 70
     0
 40
0.0
 41
1.0
 50
0.0
 71
     0
 42
2.5
  3
MSMINCHO.TTF
  4

1001
ACAD
1000
MS Mincho
1071
    32785
  0
STYLE
  5
1DB
330
D
100
AcDbSymbolTableRecord
100
AcDbTextStyleTableRecord
  2
KKZ-Y
 70
     0
 40
0.0
 41
1.0
 50
0.0
 71
     0
 42
300.0
  3
TXT
  4
bigfont.shx
  0
STYLE
  5
273
330
D
100
AcDbSymbolTableRecord
100
AcDbTextStyleTableRecord
  2
STYLE2
 70
     0
 40
0.0
 41
1.0
 50
0.0
 71
     0
 42
2.5
  3
MSMINCHO.TTF
  4

1001
ACAD
1000
MS Mincho
1071
    32785
  0
ENDTAB
  0
TABLE
  2
VIEW
  5
12
330
0
100
AcDbSymbolTable
 70
     0
  0
ENDTAB
  0
TABLE
  2
UCS
  5
13
330
0
100
AcDbSymbolTable
 70
     0
  0
ENDTAB
  0
TABLE
  2
APPID
  5
16
330
0
100
AcDbSymbolTable
 70
     4
  0
APPID
  5
17
330
16
100
AcDbSymbolTableRecord
100
AcDbRegAppTableRecord
  2
ACAD
 70
     0
  0
APPID
  5
11EA
330
16
100
AcDbSymbolTableRecord
100
AcDbRegAppTableRecord
  2
ACAD_EXEMPT_FROM_CAD_STANDARDS
 70
     0
  0
APPID
  5
5060
330
16
100
AcDbSymbolTableRecord
100
AcDbRegAppTableRecord
  2
ACAD_MLEADERVER
 70
     0
  0
APPID
  5
50AD
330
16
100
AcDbSymbolTableRecord
100
AcDbRegAppTableRecord
  2
ACAD_PSEXT
 70
     0
  0
ENDTAB
  0
TABLE
  2
DIMSTYLE
  5
18
330
0
100
AcDbSymbolTable
 70
     2
100
AcDbDimStyleTable
  0
DIMSTYLE
105
106
102
{ACAD_REACTORS
330
5FAF
330
5FB3
102
}
330
18
100
AcDbSymbolTableRecord
100
AcDbDimStyleTableRecord
  2
STANDARD-3
 70
     0
 40
3.0
 41
1.5
 42
0.625
 43
3.75
 44
1.25
 73
     0
 74
     0
 77
     1
 78
     8
140
2.0
141
2.5
143
0.0394
147
0.625
171
     4
172
     1
271
     1
178
     3
271
     1
272
     3
273
     8
274
     4
340
E
  0
DIMSTYLE
105
1F
102
{ACAD_REACTORS
330
5D5A
330
5E4A
330
5E4C
330
5F91
102
}
330
18
100
AcDbSymbolTableRecord
100
AcDbDimStyleTableRecord
  2
STANDARD-15
 70
     0
 40
3.0
 41
1.5
 42
0.625
 43
3.75
 44
1.25
 73
     0
 74
     0
 77
     1
 78
     8
140
2.0
141
2.5
143
0.0394
144
5.0
147
0.625
171
     4
172
     1
271
     1
178
     3
271
     1
272
     3
273
     8
274
     4
288
     1
340
E
  0
ENDTAB
  0
TABLE
  2
BLOCK_RECORD
  5
1
330
0
100
AcDbSymbolTable
 70
     0
  0
BLOCK_RECORD
  5
2
102
{ACAD_XDICTIONARY
360
3
102
}
330
1
100
AcDbSymbolTableRecord
100
AcDbBlockTableRecord
  2
*MODEL_SPACE
340
71E
 70
     0
280
     1
281
     0
  0
BLOCK_RECORD
  5
9
330
1
100
AcDbSymbolTableRecord
100
AcDbBlockTableRecord
  2
*PAPER_SPACE
340
71F
 70
     0
280
     1
281
     0
  0
ENDTAB
  0
ENDSEC
  0
SECTION
  2
BLOCKS
  0
BLOCK
  5
5
330
2
100
AcDbEntity
  8
0
370
    -1
100
AcDbBlockBegin
  2
*MODEL_SPACE
 70
     2
 10
0.0
 20
0.0
 30
0.0
  3
*MODEL_SPACE
  1

  0
ENDBLK
  5
8
330
2
100
AcDbEntity
  8
0
370
    -1
100
AcDbBlockEnd
  0
BLOCK
  5
A
330
9
100
AcDbEntity
 67
     1
  8
0
370
    -1
100
AcDbBlockBegin
  2
*PAPER_SPACE
 70
     0
 10
0.0
 20
0.0
 30
0.0
  3
*PAPER_SPACE
  1

  0
ENDBLK
  5
B
330
9
100
AcDbEntity
 67
     1
  8
0
370
    -1
100
AcDbBlockEnd
  0
ENDSEC
  0
SECTION
  2
ENTITIES
  0
LINE
  5
5CBB
330
2
100
AcDbEntity
  8
構造
100
AcDbLine
 10
4404.861463934551
 20
109.3508557694192
 30
0.0
 11
4404.861463934551
 21
36.65085576941897
 31
0.0
  0
LINE
  5
5CBC
330
2
100
AcDbEntity
  8
構造
100
AcDbLine
 10
4604.861463934551
 20
73.0008557694191
 30
0.0
 11
4564.861463934551
 21
36.65085576941874
 31
0.0
  0
LWPOLYLINE
  5
5CBD
330
2
100
AcDbEntity
  8
構造
100
AcDbPolyline
 90
        4
 70
     1
 43
0.0
 10
4752.716165173337
 20
-47.6184495811558
 10
4767.716165173337
 20
-47.6184495811558
 10
4767.716165173338
 20
-136.7184495811557
 10
4752.716165173338
 20
-136.7184495811557
  0
LWPOLYLINE
  5
5CBE
102
{ACAD_REACTORS
330
5CBF
102
}
330
2
100
AcDbEntity
  8
構造
100
AcDbPolyline
 90
        4
 70
     1
 43
0.0
 10
4752.716165173337
 20
-47.6184495811558
 10
4767.716165173337
 20
-47.6184495811558
 10
4767.716165173337
 20
-51.81844958115562
 10
4752.716165173337
 20
-51.81844958115562
  0
HATCH
  5
5CBF
330
2
100
AcDbEntity
  8
構造
100
AcDbHatch
 10
0.0
 20
0.0
 30
0.0
210
0.0
220
0.0
230
1.0
  2
ANSI31
 70
     0
 71
     1
 91
        1
 92
        1
 93
        4
 72
     1
 10
4752.716165173337
 20
-47.6184495811558
 11
4767.716165173337
 21
-47.6184495811558
 72
     1
 10
4767.716165173337
 20
-47.6184495811558
 11
4767.716165173337
 21
-51.81844958115562
 72
     1
 10
4767.716165173337
 20
-51.81844958115562
 11
4752.716165173337
 21
-51.81844958115562
 72
     1
 10
4752.716165173337
 20
-51.81844958115562
 11
4752.716165173337
 21
-47.6184495811558
 97
        1
330
5CBE
 75
     0
 76
     1
 52
-0.0000000000000318
 41
0.5
 77
     0
 78
     1
 53
44.99999999999996
 43
4189.427559453319
 44
-655.6402896712534
 45
-1.122532015133643
 46
1.122532015133645
 79
     0
 98
        1
 10
4189.427559453319
 20
-655.6402896712534
  0
LWPOLYLINE
  5
5CC0
102
{ACAD_REACTORS
330
5CC1
102
}
330
2
100
AcDbEntity
  8
構造
100
AcDbPolyline
 90
        4
 70
     1
 43
0.0
 10
4752.716165173337
 20
-132.5184495811559
 10
4767.716165173337
 20
-132.5184495811559
 10
4767.716165173338
 20
-136.7184495811557
 10
4752.716165173338
 20
-136.7184495811557
  0
HATCH
  5
5CC1
330
2
100
AcDbEntity
  8
構造
100
AcDbHatch
 10
0.0
 20
0.0
 30
0.0
210
0.0
220
0.0
230
1.0
  2
ANSI31
 70
     0
 71
     1
 91
        1
 92
        1
 93
        4
 72
     1
 10
4752.716165173337
 20
-132.5184495811559
 11
4767.716165173337
 21
-132.5184495811559
 72
     1
 10
4767.716165173337
 20
-132.5184495811559
 11
4767.716165173337
 21
-136.7184495811557
 72
     1
 10
4767.716165173338
 20
-136.7184495811557
 11
4752.716165173338
 21
-136.7184495811557
 72
     1
 10
4752.716165173338
 20
-136.7184495811557
 11
4752.716165173337
 21
-132.5184495811559
 97
        1
330
5CC0
 75
     0
 76
     1
 52
-0.0000000000000318
 41
0.5
 77
     0
 78
     1
 53
44.99999999999996
 43
4189.427559453319
 44
-677.27910031374
 45
-1.122532015133643
 46
1.122532015133645
 79
     0
 98
        1
 10
4189.427559453319
 20
-677.27910031374
  0
LINE
  5
5CC2
330
2
100
AcDbEntity
  8
構造
100
AcDbLine
 10
4404.861463934551
 20
109.3508557694192
 30
0.0
 11
4564.861463934551
 21
109.350855769419
 31
0.0
  0
LINE
  5
5CC3
330
2
100
AcDbEntity
  8
構造
  6
HIDDEN2
100
AcDbLine
 10
4404.861463934551
 20
105.5508557694191
 30
0.0
 11
4562.798000612801
 21
105.5508557694188
 31
0.0
  0
CIRCLE
  5
5CC4
330
2
100
AcDbEntity
  8
構造
100
AcDbCircle
 10
4702.657396291712
 20
91.60143992109647
 30
0.0
 40
17.5
  0
ARC
  5
5CC5
330
2
100
AcDbEntity
  8
構造
100
AcDbCircle
 10
4702.657396291712
 20
91.60143992109647
 30
0.0
 40
35.0
100
AcDbArc
 50
100.6544062426732
 51
109.3455937573265
  0
LWPOLYLINE
  5
5CC6
330
2
100
AcDbEntity
  8
構造
100
AcDbPolyline
 90
        4
 70
     1
 43
0.0
 10
4758.190869132896
 20
126.6014399210969
 10
4768.190869132896
 20
126.6014399210969
 10
4768.190869132897
 20
56.60143992109647
 10
4758.190869132897
 20
56.6014399210967
  0
LWPOLYLINE
  5
5CC7
102
{ACAD_REACTORS
330
5CC8
102
}
330
2
100
AcDbEntity
  8
構造
100
AcDbPolyline
 90
        4
 70
     1
 43
0.0
 10
4758.190869132896
 20
126.6014399210969
 10
4768.190869132896
 20
126.6014399210969
 10
4768.190869132896
 20
109.1014399210972
 10
4758.190869132896
 20
109.1014399210972
  0
HATCH
  5
5CC8
330
2
100
AcDbEntity
  8
構造
100
AcDbHatch
 10
0.0
 20
0.0
 30
-46.5067028905314
210
0.0
220
0.0
230
1.0
  2
ANSI31
 70
     0
 71
     1
 91
        1
 92
        1
 93
        4
 72
     1
 10
4758.190869132896
 20
126.6014399210969
 11
4768.190869132896
 21
126.6014399210969
 72
     1
 10
4768.190869132896
 20
126.6014399210969
 11
4768.190869132896
 21
109.1014399210972
 72
     1
 10
4768.190869132896
 20
109.1014399210972
 11
4758.190869132896
 21
109.1014399210972
 72
     1
 10
4758.190869132896
 20
109.1014399210972
 11
4758.190869132896
 21
126.6014399210969
 97
        1
330
5CC7
 75
     0
 76
     1
 52
-0.0000000000000318
 41
0.7
 77
     0
 78
     1
 53
44.99999999999996
 43
4232.64842999852
 44
-621.8245152111404
 45
-1.571544821187101
 46
1.571544821187103
 79
     0
 98
        1
 10
4232.64842999852
 20
-621.8245152111404
  0
LWPOLYLINE
  5
5CC9
102
{ACAD_REACTORS
330
5CCA
102
}
330
2
100
AcDbEntity
  8
構造
100
AcDbPolyline
 90
        4
 70
     1
 43
0.0
 10
4758.190869132897
 20
56.6014399210967
 10
4768.190869132897
 20
56.6014399210967
 10
4768.190869132897
 20
74.10143992109647
 10
4758.190869132897
 20
74.10143992109647
  0
HATCH
  5
5CCA
330
2
100
AcDbEntity
  8
構造
100
AcDbHatch
 10
0.0
 20
0.0
 30
-46.5067028905314
210
0.0
220
0.0
230
1.0
  2
ANSI31
 70
     0
 71
     1
 91
        1
 92
        1
 93
        4
 72
     1
 10
4758.190869132897
 20
56.6014399210967
 11
4768.190869132897
 21
56.6014399210967
 72
     1
 10
4768.190869132897
 20
56.6014399210967
 11
4768.190869132897
 21
74.10143992109647
 72
     1
 10
4768.190869132897
 20
74.10143992109647
 11
4758.190869132897
 21
74.10143992109647
 72
     1
 10
4758.190869132897
 20
74.10143992109647
 11
4758.190869132897
 21
56.6014399210967
 97
        1
330
5CC9
 75
     0
 76
     1
 52
-0.0000000000000318
 41
0.7
 77
     0
 78
     1
 53
314.9999999999999
 43
4232.648429998522
 44
805.0273950533342
 45
-1.571544821187103
 46
-1.571544821187101
 79
     0
 98
        1
 10
4232.648429998522
 20
805.0273950533342
  0
ARC
  5
5CCB
330
2
100
AcDbEntity
  8
構造
100
AcDbCircle
 10
4702.657396291712
 20
126.6117657511804
 30
0.0
 40
6.5
100
AcDbArc
 50
185.4178294805388
 51
354.5821705194612
  0
LINE
  5
5CCC
330
2
100
AcDbEntity
  8
中心線
100
AcDbLine
 10
4702.657396291712
 20
130.7419138137709
 30
0.0
 11
4702.657396291712
 21
50.73505783976634
 31
0.0
  0
ARC
  5
5CCD
330
2
100
AcDbEntity
  8
構造
100
AcDbCircle
 10
4685.15223337667
 20
121.9212714847199
 30
0.0
 40
6.5
100
AcDbArc
 50
215.4178294805327
 51
24.58217051946586
  0
ARC
  5
5CCE
330
2
100
AcDbEntity
  8
構造
100
AcDbCircle
 10
4672.337564728089
 20
109.1066028361386
 30
0.0
 40
6.5
100
AcDbArc
 50
245.4178294805223
 51
54.58217051946734
  0
ARC
  5
5CCF
330
2
100
AcDbEntity
  8
構造
100
AcDbCircle
 10
4667.647070461628
 20
91.60143992109715
 30
0.0
 40
6.5
100
AcDbArc
 50
275.4178294805271
 51
84.58217051947295
  0
ARC
  5
5CD0
330
2
100
AcDbEntity
  8
構造
100
AcDbCircle
 10
4672.337564728089
 20
74.09627700605506
 30
0.0
 40
6.5
100
AcDbArc
 50
305.4178294805326
 51
114.5821705194777
  0
ARC
  5
5CD1
330
2
100
AcDbEntity
  8
構造
100
AcDbCircle
 10
4685.15223337667
 20
61.28160835747417
 30
0.0
 40
6.5
100
AcDbArc
 50
335.4178294805224
 51
144.5821705194673
  0
ARC
  5
5CD2
330
2
100
AcDbEntity
  8
構造
100
AcDbCircle
 10
4702.657396291712
 20
56.5911140910132
 30
0.0
 40
6.5
100
AcDbArc
 50
5.417829480525822
 51
174.5821705194612
  0
ARC
  5
5CD3
330
2
100
AcDbEntity
  8
構造
100
AcDbCircle
 10
4720.162559206754
 20
61.28160835747394
 30
0.0
 40
6.5
100
AcDbArc
 50
35.41782948053267
 51
204.5821705194658
  0
ARC
  5
5CD4
330
2
100
AcDbEntity
  8
構造
100
AcDbCircle
 10
4732.977227855336
 20
74.09627700605506
 30
0.0
 40
6.5
100
AcDbArc
 50
65.4178294805514
 51
234.5821705194674
  0
ARC
  5
5CD5
330
2
100
AcDbEntity
  8
構造
100
AcDbCircle
 10
4737.667722121796
 20
91.60143992109715
 30
0.0
 40
6.5
100
AcDbArc
 50
95.41782948052706
 51
264.5821705194729
  0
ARC
  5
5CD6
330
2
100
AcDbEntity
  8
構造
100
AcDbCircle
 10
4732.977227855336
 20
109.1066028361388
 30
0.0
 40
6.5
100
AcDbArc
 50
125.4178294805326
 51
294.5821705194486
  0
ARC
  5
5CD7
330
2
100
AcDbEntity
  8
構造
100
AcDbCircle
 10
4720.162559206754
 20
121.9212714847197
 30
0.0
 40
6.5
100
AcDbArc
 50
155.4178294805342
 51
324.5821705194674
  0
ARC
  5
5CD8
330
2
100
AcDbEntity
  8
構造
100
AcDbCircle
 10
4702.657396291712
 20
91.60143992109647
 30
0.0
 40
35.0
100
AcDbArc
 50
70.65440624267355
 51
79.34559375732681
  0
ARC
  5
5CD9
330
2
100
AcDbEntity
  8
構造
100
AcDbCircle
 10
4702.657396291712
 20
91.60143992109647
 30
0.0
 40
35.0
100
AcDbArc
 50
40.6544062426871
 51
49.34559375732139
  0
ARC
  5
5CDA
330
2
100
AcDbEntity
  8
構造
100
AcDbCircle
 10
4702.657396291712
 20
91.60143992109647
 30
0.0
 40
35.0
100
AcDbArc
 50
10.65440624267318
 51
19.34559375732215
  0
ARC
  5
5CDB
330
2
100
AcDbEntity
  8
構造
100
AcDbCircle
 10
4702.657396291712
 20
91.60143992109647
 30
0.0
 40
35.0
100
AcDbArc
 50
340.6544062426779
 51
349.3455937573268
  0
ARC
  5
5CDC
330
2
100
AcDbEntity
  8
構造
100
AcDbCircle
 10
4702.657396291712
 20
91.60143992109647
 30
0.0
 40
35.0
100
AcDbArc
 50
310.6544062426786
 51
319.3455937573129
  0
ARC
  5
5CDD
330
2
100
AcDbEntity
  8
構造
100
AcDbCircle
 10
4702.657396291712
 20
91.60143992109647
 30
0.0
 40
35.0
100
AcDbArc
 50
280.6544062426732
 51
289.3455937573265
  0
ARC
  5
5CDE
330
2
100
AcDbEntity
  8
構造
100
AcDbCircle
 10
4702.657396291712
 20
91.60143992109647
 30
0.0
 40
35.0
100
AcDbArc
 50
250.6544062426735
 51
259.3455937573268
  0
ARC
  5
5CDF
330
2
100
AcDbEntity
  8
構造
100
AcDbCircle
 10
4702.657396291712
 20
91.60143992109647
 30
0.0
 40
35.0
100
AcDbArc
 50
220.6544062426603
 51
229.3455937573214
  0
ARC
  5
5CE0
330
2
100
AcDbEntity
  8
構造
100
AcDbCircle
 10
4702.657396291712
 20
91.60143992109647
 30
0.0
 40
35.0
100
AcDbArc
 50
190.6544062426732
 51
199.3455937573221
  0
ARC
  5
5CE1
330
2
100
AcDbEntity
  8
構造
100
AcDbCircle
 10
4702.657396291712
 20
91.60143992109647
 30
0.0
 40
35.0
100
AcDbArc
 50
160.6544062426779
 51
169.3455937573268
  0
ARC
  5
5CE2
330
2
100
AcDbEntity
  8
構造
100
AcDbCircle
 10
4702.657396291712
 20
91.60143992109647
 30
0.0
 40
35.0
100
AcDbArc
 50
130.6544062426786
 51
139.3455937573129
  0
LWPOLYLINE
  5
5CE3
330
2
100
AcDbEntity
  8
構造
100
AcDbPolyline
 90
        4
 70
     1
 43
0.0
 10
4492.320822749869
 20
207.3264754849929
 10
4537.320822749869
 20
207.3264754849929
 10
4537.320822749869
 20
444.8264754849931
 10
4492.320822749869
 20
444.8264754849938
  0
LWPOLYLINE
  5
5CE4
102
{ACAD_REACTORS
330
5CE5
102
}
330
2
100
AcDbEntity
  8
構造
100
AcDbPolyline
 90
        4
 70
     1
 43
0.0
 10
4492.320822749869
 20
444.8264754849938
 10
4537.320822749869
 20
444.8264754849931
 10
4537.320822749869
 20
385.5764754849924
 10
4492.320822749869
 20
385.5764754849929
  0
HATCH
  5
5CE5
330
2
100
AcDbEntity
  8
構造
100
AcDbHatch
 10
0.0
 20
0.0
 30
-46.5067028905314
210
0.0
220
0.0
230
1.0
  2
ANSI31
 70
     0
 71
     1
 91
        1
 92
        1
 93
        4
 72
     1
 10
4492.320822749869
 20
444.8264754849938
 11
4537.320822749869
 21
444.8264754849934
 72
     1
 10
4537.320822749869
 20
444.8264754849931
 11
4537.320822749869
 21
385.5764754849924
 72
     1
 10
4537.320822749869
 20
385.5764754849924
 11
4492.320822749869
 21
385.5764754849929
 72
     1
 10
4492.320822749869
 20
385.5764754849929
 11
4492.320822749869
 21
444.8264754849938
 97
        1
330
5CE4
 75
     0
 76
     1
 52
-0.0000000000000318
 41
0.7
 77
     0
 78
     1
 53
44.99999999999996
 43
3966.778383615494
 44
-328.5994796472444
 45
-1.571544821187101
 46
1.571544821187103
 79
     0
 98
        1
 10
3966.778383615494
 20
-328.5994796472444
  0
LWPOLYLINE
  5
5CE6
102
{ACAD_REACTORS
330
5CE7
102
}
330
2
100
AcDbEntity
  8
構造
100
AcDbPolyline
 90
        4
 70
     1
 43
0.0
 10
4492.320822749869
 20
207.3264754849927
 10
4537.320822749869
 20
207.3264754849927
 10
4537.320822749869
 20
266.5764754849927
 10
4492.320822749869
 20
266.5764754849927
  0
HATCH
  5
5CE7
330
2
100
AcDbEntity
  8
構造
100
AcDbHatch
 10
0.0
 20
0.0
 30
-46.5067028905314
210
0.0
220
0.0
230
1.0
  2
ANSI31
 70
     0
 71
     1
 91
        1
 92
        1
 93
        4
 72
     1
 10
4492.320822749869
 20
207.3264754849927
 11
4537.320822749869
 21
207.3264754849927
 72
     1
 10
4537.320822749869
 20
207.3264754849927
 11
4537.320822749869
 21
266.5764754849927
 72
     1
 10
4537.320822749869
 20
266.5764754849927
 11
4492.320822749868
 21
266.5764754849927
 72
     1
 10
4492.320822749869
 20
266.5764754849927
 11
4492.32082274987
 21
207.3264754849927
 97
        1
330
5CE6
 75
     0
 76
     1
 52
-0.0000000000000318
 41
0.7
 77
     0
 78
     1
 53
314.9999999999999
 43
3966.778383615494
 44
980.75243061723
 45
-1.571544821187103
 46
-1.571544821187101
 79
     0
 98
        1
 10
3966.778383615494
 20
980.75243061723
  0
LINE
  5
5CE8
330
2
100
AcDbEntity
  8
中心線
100
AcDbLine
 10
4771.120738220433
 20
-92.16844958115598
 30
0.0
 11
4748.783302237561
 21
-92.16844958115598
 31
0.0
  0
LINE
  5
5CE9
330
2
100
AcDbEntity
  8
中心線
100
AcDbLine
 10
4483.297136884346
 20
326.0764754849927
 30
0.0
 11
4542.027438173929
 21
326.0764754849927
 31
0.0
  0
LINE
  5
5CEA
330
2
100
AcDbEntity
  8
中心線
100
AcDbLine
 10
4605.913293810401
 20
326.0764754849927
 30
0.0
 11
4734.913293810401
 21
326.0764754849924
 31
0.0
  0
LINE
  5
5CEB
330
2
100
AcDbEntity
  8
中心線
100
AcDbLine
 10
4670.413293810401
 20
390.5764754849927
 30
0.0
 11
4670.413293810401
 21
261.5764754849927
 31
0.0
  0
LINE
  5
5CEC
330
2
100
AcDbEntity
  8
中心線
 62
     1
100
AcDbLine
 10
4224.152659108582
 20
402.7756779252845
 30
0.0
 11
4224.152659108582
 21
242.7756779252845
 31
0.0
  0
TEXT
  5
5CED
330
2
100
AcDbEntity
  8
TITLE
100
AcDbText
 10
4265.867563307953
 20
441.7210074913457
 30
0.0
 40
8.0
  1
アンカーヘッド　　S=1/3
 41
0.8
  7
STYLE1
100
AcDbText
  0
LINE
  5
5CEE
330
2
100
AcDbEntity
  8
TITLE
100
AcDbLine
 10
4264.209178889947
 20
440.4826452872212
 30
0.0
 11
4374.732676496356
 21
440.4826452872212
 31
0.0
  0
TEXT
  5
5CEF
330
2
100
AcDbEntity
  8
TITLE
100
AcDbText
 10
4658.23301621696
 20
-14.45890208076639
 30
0.0
 40
8.0
  1
スチールリング4型　　S=1/3
 41
0.8
  7
STYLE1
100
AcDbText
  0
LINE
  5
5CF0
330
2
100
AcDbEntity
  8
TITLE
100
AcDbLine
 10
4657.433055407961
 20
-18.51411044898055
 30
0.0
 11
4786.192351252277
 21
-18.51411044898077
 31
0.0
  0
TEXT
  5
5CF1
330
2
100
AcDbEntity
  8
TITLE
100
AcDbText
 10
4606.401700112978
 20
461.6315081071157
 30
0.0
 40
8.0
  1
支　圧　板　　S=1/3
 41
0.8
  7
STYLE1
100
AcDbText
  0
LINE
  5
5CF2
330
2
100
AcDbEntity
  8
TITLE
100
AcDbLine
 10
4603.491057180314
 20
459.9907384404396
 30
0.0
 11
4696.037246749369
 21
459.9907384404396
 31
0.0
  0
TEXT
  5
5CF3
330
2
100
AcDbEntity
  8
TITLE
100
AcDbText
 10
4435.727128410494
 20
157.0022996451144
 30
0.0
 40
8.0
  1
パイロットキャップ 4型　　S=1/3
 41
0.8
  7
STYLE1
100
AcDbText
  0
LINE
  5
5CF4
330
2
100
AcDbEntity
  8
TITLE
100
AcDbLine
 10
4434.525173027196
 20
154.9591245404772
 30
0.0
 11
4581.926715829377
 21
154.9591245404772
 31
0.0
  0
LINE
  5
5CF5
330
2
100
AcDbEntity
  8
構造
100
AcDbLine
 10
3866.775206704598
 20
419.7681026072232
 30
0.0
 11
3866.775206704598
 21
136.5936276695747
 31
0.0
  0
LINE
  5
5CF6
330
2
100
AcDbEntity
  8
構造
100
AcDbLine
 10
3906.775206704598
 20
419.7681026072232
 30
0.0
 11
3906.775206704598
 21
136.5936276695745
 31
0.0
  0
LINE
  5
5CF7
330
2
100
AcDbEntity
  8
寸法
100
AcDbLine
 10
3892.072279237543
 20
282.9324002292387
 30
0.0
 11
3859.758860328942
 21
282.932400229239
 31
0.0
  0
LINE
  5
5CF8
330
2
100
AcDbEntity
  8
構造
100
AcDbLine
 10
3906.775206704598
 20
273.1174456530152
 30
0.0
 11
4130.255199408552
 21
144.0912117068915
 31
0.0
  0
LINE
  5
5CF9
330
2
100
AcDbEntity
  8
構造
100
AcDbLine
 10
3906.775206704597
 20
246.5593332702924
 30
0.0
 11
4118.755199408552
 21
124.1726274198493
 31
0.0
  0
LWPOLYLINE
  5
5CFA
330
2
100
AcDbEntity
  8
構造
100
AcDbPolyline
 90
        4
 70
     1
 43
0.0
 10
3758.429323018526
 20
323.5466151117741
 10
3762.759450037449
 20
321.0466151117741
 10
3781.759450037449
 20
353.9555804555828
 10
3777.429323018527
 20
356.4555804555828
  0
LWPOLYLINE
  5
5CFB
330
2
100
AcDbEntity
  8
構造
100
AcDbPolyline
 90
        4
 70
     1
 43
0.0
 10
3753.537018173113
 20
339.0728945534029
 10
3763.929323018527
 20
333.0728945534029
 10
3771.929323018527
 20
346.9293010139536
 10
3761.537018173113
 20
352.9293010139538
  0
LINE
  5
5CFC
330
2
100
AcDbEntity
  8
構造
100
AcDbLine
 10
3811.175206704597
 20
378.8714862423703
 30
0.0
 11
3796.175206704597
 21
378.8714862423703
 31
0.0
  0
LINE
  5
5CFD
330
2
100
AcDbEntity
  8
構造
100
AcDbLine
 10
3811.175206704597
 20
238.8714862423703
 30
0.0
 11
3796.175206704597
 21
238.8714862423703
 31
0.0
  0
LINE
  5
5CFE
330
2
100
AcDbEntity
  8
構造
100
AcDbLine
 10
3762.759450037449
 20
321.0466151117739
 30
0.0
 11
3796.175206704597
 21
238.8714862423703
 31
0.0
  0
LWPOLYLINE
  5
5CFF
102
{ACAD_REACTORS
330
5D0A
102
}
330
2
100
AcDbEntity
  8
構造
100
AcDbPolyline
 90
        4
 70
     1
 43
0.0
 10
3861.175206704597
 20
340.8714862423706
 10
3866.775206704596
 20
340.8714862423706
 10
3866.775206704596
 20
390.8714862423706
 10
3861.175206704597
 20
390.8714862423703
  0
LWPOLYLINE
  5
5D00
330
2
100
AcDbEntity
  8
構造
100
AcDbPolyline
 90
        4
 70
     1
 43
0.0
 10
3861.175206704597
 20
340.8714862423706
 10
3861.175206704597
 20
340.8714862423706
 10
3861.175206704597
 20
340.8714862423706
 10
3861.175206704597
 20
340.8714862423706
  0
LINE
  5
5D01
330
2
100
AcDbEntity
  8
構造
100
AcDbLine
 10
3811.175206704597
 20
390.8714862423703
 30
0.0
 11
3811.175206704597
 21
340.8714862423703
 31
0.0
  0
LINE
  5
5D02
330
2
100
AcDbEntity
  8
構造
100
AcDbLine
 10
3813.975206704598
 20
390.8714862423703
 30
0.0
 11
3813.975206704597
 21
366.7714862423704
 31
0.0
  0
LINE
  5
5D03
330
2
100
AcDbEntity
  8
構造
100
AcDbLine
 10
3858.375206704598
 20
390.8714862423703
 30
0.0
 11
3858.375206704597
 21
366.7714862423704
 31
0.0
  0
LINE
  5
5D04
330
2
100
AcDbEntity
  8
構造
100
AcDbLine
 10
3813.975206704597
 20
364.9714862423705
 30
0.0
 11
3813.975206704597
 21
340.8714862423701
 31
0.0
  0
LINE
  5
5D05
330
2
100
AcDbEntity
  8
構造
100
AcDbLine
 10
3858.375206704597
 20
364.9714862423702
 30
0.0
 11
3858.375206704598
 21
340.8714862423701
 31
0.0
  0
LINE
  5
5D06
330
2
100
AcDbEntity
  8
構造
100
AcDbLine
 10
3811.175206704597
 20
390.8714862423703
 30
0.0
 11
3813.975206704598
 21
390.8714862423703
 31
0.0
  0
LINE
  5
5D07
330
2
100
AcDbEntity
  8
構造
100
AcDbLine
 10
3858.375206704598
 20
390.8714862423703
 30
0.0
 11
3861.175206704597
 21
390.8714862423703
 31
0.0
  0
LINE
  5
5D08
330
2
100
AcDbEntity
  8
構造
100
AcDbLine
 10
3811.175206704597
 20
340.8714862423703
 30
0.0
 11
3813.975206704597
 21
340.8714862423701
 31
0.0
  0
LINE
  5
5D09
330
2
100
AcDbEntity
  8
構造
100
AcDbLine
 10
3858.375206704598
 20
340.8714862423701
 30
0.0
 11
3861.175206704597
 21
340.8714862423701
 31
0.0
  0
HATCH
  5
5D0A
330
2
100
AcDbEntity
  8
構造
100
AcDbHatch
 10
0.0
 20
0.0
 30
0.0
210
0.0
220
0.0
230
1.0
  2
ANSI31
 70
     0
 71
     1
 91
        1
 92
        1
 93
        4
 72
     1
 10
3861.175206704597
 20
340.8714862423706
 11
3866.775206704596
 21
340.8714862423706
 72
     1
 10
3866.775206704596
 20
340.8714862423706
 11
3866.775206704596
 21
390.8714862423706
 72
     1
 10
3866.775206704596
 20
390.8714862423706
 11
3861.175206704597
 21
390.8714862423703
 72
     1
 10
3861.175206704597
 20
390.8714862423703
 11
3861.175206704597
 21
340.8714862423703
 97
        1
330
5CFF
 75
     0
 76
     1
 52
-0.0000000000000318
 41
1.2
 77
     0
 78
     1
 53
44.99999999999996
 43
3295.418179263318
 44
266.7612746891698
 45
-2.694076836320744
 46
2.694076836320748
 79
     0
 98
        1
 10
3295.418179263318
 20
266.7612746891698
  0
LINE
  5
5D0B
330
2
100
AcDbEntity
  8
構造
100
AcDbLine
 10
3796.175206704597
 20
340.8714862423703
 30
0.0
 11
3866.775206704598
 21
340.8714862423703
 31
0.0
  0
LINE
  5
5D0C
330
2
100
AcDbEntity
  8
構造
100
AcDbLine
 10
3866.775206704597
 20
338.8714862423703
 30
0.0
 11
3866.775206704598
 21
284.9324002292387
 31
0.0
  0
LINE
  5
5D0D
330
2
100
AcDbEntity
  8
構造
100
AcDbLine
 10
3796.175206704597
 20
334.8714862423703
 30
0.0
 11
3860.775206704597
 21
334.8714862423703
 31
0.0
  0
LINE
  5
5D0E
330
2
100
AcDbEntity
  8
構造
100
AcDbLine
 10
3860.775206704597
 20
334.8714862423703
 30
0.0
 11
3860.775206704597
 21
284.4796989506676
 31
0.0
  0
LINE
  5
5D0F
330
2
100
AcDbEntity
  8
構造
100
AcDbLine
 10
3796.175206704597
 20
226.8714862423706
 30
0.0
 11
3796.175206704597
 21
211.8714862423703
 31
0.0
  0
LINE
  5
5D10
330
2
100
AcDbEntity
  8
構造
100
AcDbLine
 10
3906.775206704598
 20
226.8714862423703
 30
0.0
 11
3796.175206704597
 21
226.8714862423706
 31
0.0
  0
LINE
  5
5D11
330
2
100
AcDbEntity
  8
構造
100
AcDbLine
 10
3851.775206704598
 20
211.8714862423703
 30
0.0
 11
3796.175206704597
 21
211.8714862423703
 31
0.0
  0
LWPOLYLINE
  5
5D12
102
{ACAD_REACTORS
330
5D15
102
}
330
2
100
AcDbEntity
  8
構造
100
AcDbPolyline
 90
        4
 70
     1
 43
0.0
 10
3861.175206704597
 20
226.8714862423708
 10
3866.775206704596
 20
226.8714862423706
 10
3866.775206704597
 20
276.8714862423706
 10
3861.175206704597
 20
276.8714862423708
  0
LWPOLYLINE
  5
5D13
330
2
100
AcDbEntity
  8
構造
100
AcDbPolyline
 90
        4
 70
     1
 43
0.0
 10
3861.175206704597
 20
226.8714862423708
 10
3861.175206704597
 20
226.8714862423708
 10
3861.175206704597
 20
226.8714862423708
 10
3861.175206704597
 20
226.8714862423708
  0
LINE
  5
5D14
330
2
100
AcDbEntity
  8
構造
100
AcDbLine
 10
3858.375206704598
 20
226.8714862423701
 30
0.0
 11
3861.175206704597
 21
226.8714862423703
 31
0.0
  0
HATCH
  5
5D15
330
2
100
AcDbEntity
  8
構造
100
AcDbHatch
 10
0.0
 20
0.0
 30
0.0
210
0.0
220
0.0
230
1.0
  2
ANSI31
 70
     0
 71
     1
 91
        1
 92
        1
 93
        4
 72
     1
 10
3861.175206704597
 20
226.8714862423708
 11
3866.775206704596
 21
226.8714862423706
 72
     1
 10
3866.775206704596
 20
226.8714862423706
 11
3866.775206704597
 21
276.8714862423706
 72
     1
 10
3866.775206704597
 20
276.8714862423706
 11
3861.175206704597
 21
276.8714862423708
 72
     1
 10
3861.175206704597
 20
276.8714862423708
 11
3861.175206704597
 21
226.8714862423708
 97
        1
330
5D12
 75
     0
 76
     1
 52
-0.0000000000000318
 41
1.2
 77
     0
 78
     1
 53
44.99999999999996
 43
3295.418179263319
 44
152.7612746891696
 45
-2.694076836320744
 46
2.694076836320748
 79
     0
 98
        1
 10
3295.418179263319
 20
152.7612746891696
  0
LINE
  5
5D16
330
2
100
AcDbEntity
  8
構造
100
AcDbLine
 10
3811.175206704597
 20
378.8714862423703
 30
0.0
 11
3797.18770290167
 21
378.8714862423703
 31
0.0
  0
LINE
  5
5D17
330
2
100
AcDbEntity
  8
構造
100
AcDbLine
 10
3796.175206704597
 20
378.8714862423703
 30
0.0
 11
3762.762490558305
 21
321.0391379447685
 31
0.0
  0
LINE
  5
5D18
330
2
100
AcDbEntity
  8
構造
100
AcDbLine
 10
3811.175206704597
 20
238.8714862423703
 30
0.0
 11
3796.175206704597
 21
238.8714862423703
 31
0.0
  0
LINE
  5
5D19
330
2
100
AcDbEntity
  8
構造
100
AcDbLine
 10
3811.175206704597
 20
226.8714862423703
 30
0.0
 11
3796.175206704597
 21
226.8714862423706
 31
0.0
  0
LINE
  5
5D1A
330
2
100
AcDbEntity
  8
構造
100
AcDbLine
 10
3851.775206704598
 20
211.8714862423703
 30
0.0
 11
3851.775206704597
 21
158.5107819329123
 31
0.0
  0
LINE
  5
5D1B
330
2
100
AcDbEntity
  8
構造
100
AcDbLine
 10
3866.775206704598
 20
226.8714862423703
 30
0.0
 11
3866.775206704597
 21
163.9068560967387
 31
0.0
  0
LINE
  5
5D1C
330
2
100
AcDbEntity
  8
構造
100
AcDbLine
 10
3796.175206704597
 20
340.8714862423703
 30
0.0
 11
3796.175206704597
 21
334.8714862423703
 31
0.0
  0
LINE
  5
5D1D
330
2
100
AcDbEntity
  8
構造
100
AcDbLine
 10
3858.375206704597
 20
366.7714862423704
 30
0.0
 11
3813.975206704597
 21
366.7714862423704
 31
0.0
  0
LINE
  5
5D1E
330
2
100
AcDbEntity
  8
構造
100
AcDbLine
 10
3858.375206704597
 20
364.9714862423702
 30
0.0
 11
3813.975206704597
 21
364.9714862423705
 31
0.0
  0
LWPOLYLINE
  5
5D1F
330
2
100
AcDbEntity
  8
構造
  6
HIDDEN2
100
AcDbPolyline
 90
        4
 70
     1
 43
0.0
 10
3796.175206704597
 20
364.2714862423704
 10
3811.175206704598
 20
364.2714862423704
 10
3811.175206704597
 20
367.4714862423705
 10
3796.175206704597
 20
367.4714862423705
  0
LWPOLYLINE
  5
5D20
330
2
100
AcDbEntity
  8
構造
100
AcDbPolyline
 90
        4
 70
     1
 43
0.0
 10
3861.175206704597
 20
226.8714862423708
 10
3861.175206704597
 20
226.8714862423708
 10
3861.175206704597
 20
226.8714862423708
 10
3861.175206704597
 20
226.8714862423708
  0
LINE
  5
5D21
330
2
100
AcDbEntity
  8
構造
100
AcDbLine
 10
3811.175206704597
 20
276.8714862423703
 30
0.0
 11
3811.175206704597
 21
226.8714862423703
 31
0.0
  0
LINE
  5
5D22
330
2
100
AcDbEntity
  8
構造
100
AcDbLine
 10
3813.975206704597
 20
276.8714862423703
 30
0.0
 11
3813.975206704597
 21
252.7714862423704
 31
0.0
  0
LINE
  5
5D23
330
2
100
AcDbEntity
  8
構造
100
AcDbLine
 10
3858.375206704598
 20
276.8714862423701
 30
0.0
 11
3858.375206704597
 21
252.7714862423704
 31
0.0
  0
LINE
  5
5D24
330
2
100
AcDbEntity
  8
構造
100
AcDbLine
 10
3813.975206704597
 20
250.9714862423705
 30
0.0
 11
3813.975206704597
 21
226.8714862423703
 31
0.0
  0
LINE
  5
5D25
330
2
100
AcDbEntity
  8
構造
100
AcDbLine
 10
3858.375206704597
 20
250.9714862423702
 30
0.0
 11
3858.375206704598
 21
226.8714862423701
 31
0.0
  0
LINE
  5
5D26
330
2
100
AcDbEntity
  8
構造
100
AcDbLine
 10
3811.175206704597
 20
276.8714862423703
 30
0.0
 11
3813.975206704597
 21
276.8714862423703
 31
0.0
  0
LINE
  5
5D27
330
2
100
AcDbEntity
  8
構造
100
AcDbLine
 10
3858.375206704598
 20
276.8714862423701
 30
0.0
 11
3861.175206704597
 21
276.8714862423703
 31
0.0
  0
LINE
  5
5D28
330
2
100
AcDbEntity
  8
構造
100
AcDbLine
 10
3811.175206704597
 20
226.8714862423703
 30
0.0
 11
3813.975206704597
 21
226.8714862423703
 31
0.0
  0
LINE
  5
5D29
330
2
100
AcDbEntity
  8
構造
100
AcDbLine
 10
3858.375206704598
 20
226.8714862423701
 30
0.0
 11
3861.175206704597
 21
226.8714862423703
 31
0.0
  0
LINE
  5
5D2A
330
2
100
AcDbEntity
  8
構造
100
AcDbLine
 10
3858.375206704597
 20
252.7714862423704
 30
0.0
 11
3813.975206704597
 21
252.7714862423704
 31
0.0
  0
LINE
  5
5D2B
330
2
100
AcDbEntity
  8
構造
100
AcDbLine
 10
3858.375206704597
 20
250.9714862423702
 30
0.0
 11
3813.975206704597
 21
250.9714862423705
 31
0.0
  0
LWPOLYLINE
  5
5D2C
330
2
100
AcDbEntity
  8
構造
  6
HIDDEN2
100
AcDbPolyline
 90
        4
 70
     1
 43
0.0
 10
3796.175206704597
 20
250.2714862423704
 10
3811.175206704597
 20
250.2714862423704
 10
3811.175206704597
 20
253.4714862423702
 10
3796.175206704597
 20
253.4714862423702
  0
LINE
  5
5D2D
330
2
100
AcDbEntity
  8
中心線
100
AcDbLine
 10
3811.175206704597
 20
331.7054872174674
 30
0.0
 11
3811.175206704597
 21
295.8689981213761
 31
0.0
  0
LWPOLYLINE
  5
5D2E
330
2
100
AcDbEntity
  8
構造
100
AcDbPolyline
 90
        4
 70
     1
 43
0.0
 10
3766.319563949659
 20
312.2916788570062
 10
3763.355274976193
 20
311.0862781428086
 10
3767.649515020523
 20
300.525998674836
 10
3770.613803993989
 20
301.7313993890334
  0
LINE
  5
5D2F
330
2
100
AcDbEntity
  8
構造
100
AcDbLine
 10
4546.834102285689
 20
-96.42073000794358
 30
0.0
 11
4535.334102285689
 21
-116.3393142949853
 31
0.0
  0
LINE
  5
5D30
330
2
100
AcDbEntity
  8
構造
100
AcDbLine
 10
4499.774453296253
 20
-77.93043304400362
 30
0.0
 11
4527.455645017568
 21
-93.98520256862957
 31
0.0
  0
LINE
  5
5D31
330
2
100
AcDbEntity
  8
構造
100
AcDbLine
 10
4495.822832096468
 20
-84.77484173430025
 30
0.0
 11
4523.535645017568
 21
-100.7748417342998
 31
0.0
  0
LINE
  5
5D32
330
2
100
AcDbEntity
  8
構造
100
AcDbLine
 10
4527.45564501757
 20
-93.98520256862957
 30
0.0
 11
4531.285736432268
 21
-99.68602310368351
 31
0.0
  0
LINE
  5
5D33
330
2
100
AcDbEntity
  8
構造
100
AcDbLine
 10
4530.387746130691
 20
-101.2413879307198
 30
0.0
 11
4523.535645017568
 21
-100.7748417342998
 31
0.0
  0
LINE
  5
5D34
330
2
100
AcDbEntity
  8
構造
100
AcDbLine
 10
4442.757438278431
 20
-41.03946009397941
 30
0.0
 11
4499.774453296253
 21
-77.93043304400362
 31
0.0
  0
LINE
  5
5D35
330
2
100
AcDbEntity
  8
構造
100
AcDbLine
 10
4495.822832096468
 20
-84.77484173430025
 30
0.0
 11
4436.445862024173
 21
-54.46570193142134
 31
0.0
  0
LINE
  5
5D36
330
2
100
AcDbEntity
  8
構造
100
AcDbLine
 10
4249.873281237142
 20
67.29318635606569
 30
0.0
 11
4245.073281237143
 21
58.97934247973581
 31
0.0
  0
LINE
  5
5D37
330
2
100
AcDbEntity
  8
構造
100
AcDbLine
 10
3811.175206704597
 20
319.8828174573755
 30
0.0
 11
3866.775206704597
 21
287.7821424904319
 31
0.0
  0
LINE
  5
5D38
330
2
100
AcDbEntity
  8
構造
100
AcDbLine
 10
3811.175206704597
 20
310.1833329349897
 30
0.0
 11
3866.775206704598
 21
278.0826579680461
 31
0.0
  0
LINE
  5
5D39
330
2
100
AcDbEntity
  8
構造
100
AcDbLine
 10
4442.518454544093
 20
-43.94766315325796
 30
0.0
 11
4478.682048499228
 21
-67.3104810386751
 31
0.0
  0
LINE
  5
5D3A
330
2
100
AcDbEntity
  8
構造
100
AcDbLine
 10
4497.092832096467
 20
-82.57513720868747
 30
0.0
 11
4477.397014880524
 21
-72.53622455570303
 31
0.0
  0
LINE
  5
5D3B
330
2
100
AcDbEntity
  8
構造
100
AcDbLine
 10
4498.510239576548
 20
-80.12011543816061
 30
0.0
 11
4526.101535410762
 21
-96.1363463901107
 31
0.0
  0
LINE
  5
5D3C
330
2
100
AcDbEntity
  8
構造
100
AcDbLine
 10
4497.092832096467
 20
-82.57513720868747
 30
0.0
 11
4524.721535410763
 21
-98.52657650455603
 31
0.0
  0
LINE
  5
5D3D
330
2
100
AcDbEntity
  8
構造
100
AcDbLine
 10
4527.370857191774
 20
-93.93781657424302
 30
0.0
 11
4526.101535410762
 21
-96.1363463901107
 31
0.0
  0
LINE
  5
5D3E
330
2
100
AcDbEntity
  8
構造
100
AcDbLine
 10
4524.721535410763
 20
-98.52657650455603
 30
0.0
 11
4523.450857191774
 21
-100.7274557399132
 31
0.0
  0
LINE
  5
5D3F
330
2
100
AcDbEntity
  8
構造
100
AcDbLine
 10
4246.749373005936
 20
61.63741013634649
 30
0.0
 11
4306.053187087678
 21
23.70329538946612
 31
0.0
  0
LINE
  5
5D40
330
2
100
AcDbEntity
  8
構造
100
AcDbLine
 10
4248.409373005927
 20
64.51261447691604
 30
0.0
 11
4310.913187087679
 21
32.12106231425128
 31
0.0
  0
LINE
  5
5D41
330
2
100
AcDbEntity
  8
構造
100
AcDbLine
 10
3906.775206704598
 20
265.3809520458742
 30
0.0
 11
4126.905199408552
 21
138.288841501535
 31
0.0
  0
LINE
  5
5D42
330
2
100
AcDbEntity
  8
構造
100
AcDbLine
 10
3906.775206704598
 20
254.2958268774335
 30
0.0
 11
4122.105199408552
 21
129.9749976252047
 31
0.0
  0
LINE
  5
5D43
330
2
100
AcDbEntity
  8
構造
100
AcDbLine
 10
3751.438814942837
 20
351.4386999539608
 30
0.0
 11
3758.367018173113
 21
347.4386999539608
 31
0.0
  0
LINE
  5
5D44
330
2
100
AcDbEntity
  8
構造
100
AcDbLine
 10
3749.778814942837
 20
348.5634956133968
 30
0.0
 11
3756.707018173113
 21
344.5634956133968
 31
0.0
  0
LINE
  5
5D45
330
2
100
AcDbEntity
  8
構造
100
AcDbLine
 10
4210.036112663058
 20
90.29318635606569
 30
0.0
 11
4205.236112663059
 21
81.97934247973603
 31
0.0
  0
HATCH
  5
5D46
330
2
100
AcDbEntity
  8
0
100
AcDbHatch
 10
0.0
 20
0.0
 30
0.0
210
0.0
220
0.0
230
1.0
  2
ANSI31
 70
     0
 71
     0
 91
        2
 92
        7
 72
     0
 73
     1
 93
        4
 10
4207.636112663058
 20
86.1362644179012
 10
4206.806112663058
 20
84.69866224761904
 10
4246.643281237142
 20
61.69866224761904
 10
4247.473281237142
 20
63.13626441790143
 97
        0
 92
        7
 72
     0
 73
     1
 93
        4
 10
4208.466112663058
 20
87.57386658818268
 10
4207.636112663058
 20
86.1362644179012
 10
4247.473281237142
 20
63.13626441790143
 10
4248.303281237142
 20
64.57386658818291
 97
        0
 75
     0
 76
     1
 52
59.99999999999996
 41
0.5
 77
     0
 78
     1
 53
104.9999999999998
 43
3552.708272588093
 44
-325.2067840582158
 45
-1.533407249233896
 46
-0.4108752341002506
 79
     0
 47
0.080404709641177
 98
        2
 10
4232.964464171517
 20
70.57996227852595
 10
4233.92978627115
 20
71.94683242132714
  0
LINE
  5
5D47
330
2
100
AcDbEntity
  8
構造
100
AcDbLine
 10
4312.47203281449
 20
31.22106231425118
 30
0.0
 11
4307.612032814492
 21
22.80329538946717
 31
0.0
  0
LINE
  5
5D48
330
2
100
AcDbEntity
  8
構造
100
AcDbLine
 10
4310.913187087679
 20
32.12106231425105
 30
0.0
 11
4306.05318708768
 21
23.70329538946726
 31
0.0
  0
LINE
  5
5D49
330
2
100
AcDbEntity
  8
構造
100
AcDbLine
 10
4440.99701629736
 20
-42.98287149717589
 30
0.0
 11
4442.555862024174
 21
-43.88287149717553
 31
0.0
  0
LINE
  5
5D4A
330
2
100
AcDbEntity
  8
構造
100
AcDbLine
 10
4436.137016297362
 20
-51.40063842195991
 30
0.0
 11
4437.695862024173
 21
-52.30063842196023
 31
0.0
  0
LINE
  5
5D4B
330
2
100
AcDbEntity
  8
構造
100
AcDbLine
 10
4442.555862024174
 20
-43.88287149717553
 30
0.0
 11
4437.695862024173
 21
-52.30063842196023
 31
0.0
  0
LINE
  5
5D4C
330
2
100
AcDbEntity
  8
構造
100
AcDbLine
 10
4440.99701629736
 20
-42.98287149717612
 30
0.0
 11
4436.137016297362
 21
-51.40063842195991
 31
0.0
  0
TEXT
  5
5D4D
330
2
100
AcDbEntity
  8
文字
100
AcDbText
 10
4273.673721821124
 20
103.8764712883162
 30
0.0
 40
6.0
  1
コーキング材
 50
329.9999999999995
 41
0.8
  7
STYLE1
100
AcDbText
  0
LINE
  5
5D4E
330
2
100
AcDbEntity
  8
構造
100
AcDbLine
 10
3811.175206704597
 20
320.5756377804028
 30
0.0
 11
3866.775206704597
 21
288.4749628134593
 31
0.0
  0
LINE
  5
5D4F
330
2
100
AcDbEntity
  8
構造
100
AcDbLine
 10
3811.175206704597
 20
316.9498780898921
 30
0.0
 11
3866.775206704598
 21
284.849203122948
 31
0.0
  0
LINE
  5
5D50
330
2
100
AcDbEntity
  8
中心線
100
AcDbLine
 10
3685.564128107527
 20
387.5546652373996
 30
0.0
 11
4541.084102285689
 21
-106.3800221514646
 31
0.0
  0
LINE
  5
5D51
330
2
100
AcDbEntity
  8
構造
100
AcDbLine
 10
3811.175206704597
 20
313.1162723024731
 30
0.0
 11
3866.775206704598
 21
281.0155973355297
 31
0.0
  0
LINE
  5
5D52
330
2
100
AcDbEntity
  8
構造
100
AcDbLine
 10
3811.175206704597
 20
309.490512611962
 30
0.0
 11
3866.775206704597
 21
277.3898376450186
 31
0.0
  0
LINE
  5
5D53
330
2
100
AcDbEntity
  8
構造
100
AcDbLine
 10
3756.647188778028
 20
348.4282174936675
 30
0.0
 11
3754.987188778028
 21
345.5530131531036
 31
0.0
  0
LINE
  5
5D54
330
2
100
AcDbEntity
  8
構造
100
AcDbLine
 10
3860.775206704597
 20
284.4796989506676
 30
0.0
 11
3866.775206704598
 21
284.4796989506676
 31
0.0
  0
LINE
  5
5D55
330
2
100
AcDbEntity
  8
構造
100
AcDbLine
 10
3906.775206704598
 20
264.6881317228467
 30
0.0
 11
4126.936164531016
 21
137.5781434567164
 31
0.0
  0
LINE
  5
5D56
330
2
100
AcDbEntity
  8
構造
100
AcDbLine
 10
3906.775206704597
 20
261.7551923553633
 30
0.0
 11
4127.06725021612
 21
134.569521733652
 31
0.0
  0
LINE
  5
5D57
330
2
100
AcDbEntity
  8
構造
100
AcDbLine
 10
3906.775206704598
 20
257.9215865679441
 30
0.0
 11
4121.943148600982
 21
133.6943173930881
 31
0.0
  0
LINE
  5
5D58
330
2
100
AcDbEntity
  8
構造
100
AcDbLine
 10
3906.775206704598
 20
254.9886472004609
 30
0.0
 11
4122.074234286085
 21
130.6856956700231
 31
0.0
  0
LINE
  5
5D59
330
2
100
AcDbEntity
  8
構造
100
AcDbLine
 10
3851.775206704597
 20
158.5107819329123
 30
0.0
 11
3866.775206704597
 21
158.5107819329123
 31
0.0
  0
LEADER
  5
5D5A
330
2
100
AcDbEntity
  8
文字
100
AcDbLeader
  3
STANDARD-15
 74
     0
 76
     2
 10
3893.596170892506
 20
406.5019636837196
 30
0.0
 10
3902.985679745751
 20
427.7085462931525
 30
0.0
1001
ACAD
1000
DSTYLE
1002
{
1070
   288
1070
     0
1070
   144
1040
1.0
1002
}
  0
LINE
  5
5D5B
330
2
100
AcDbEntity
  8
文字
  6
ByBlock
100
AcDbLine
 10
4536.957899917785
 20
-117.2768142949853
 30
0.0
 11
4557.101821578397
 21
-128.906912888275
 31
0.0
  0
LINE
  5
5D5C
330
2
100
AcDbEntity
  8
文字
  6
ByBlock
100
AcDbLine
 10
4548.457899917785
 20
-97.35823000794358
 30
0.0
 11
4568.601821578397
 21
-108.9883286012334
 31
0.0
  0
LINE
  5
5D5D
330
2
100
AcDbEntity
  8
文字
  6
ByBlock
100
AcDbLine
 10
4556.104226314206
 20
-123.134798571245
 30
0.0
 11
4563.104226314206
 21
-111.0104429182632
 31
0.0
  0
SOLID
  5
5D5E
330
2
100
AcDbEntity
  8
文字
  6
ByBlock
100
AcDbTrace
 10
4555.454707261368
 20
-122.759798571245
 30
0.0
 11
4556.753745367045
 21
-123.509798571245
 31
0.0
 12
4553.854226314206
 22
-127.0319128882752
 32
0.0
 13
4553.854226314206
 23
-127.0319128882752
 33
0.0
  0
SOLID
  5
5D5F
330
2
100
AcDbEntity
  8
文字
  6
ByBlock
100
AcDbTrace
 10
4562.454707261368
 20
-110.6354429182636
 30
0.0
 11
4563.753745367045
 21
-111.3854429182634
 31
0.0
 12
4565.354226314206
 22
-107.1133286012334
 32
0.0
 13
4565.354226314206
 23
-107.1133286012334
 33
0.0
  0
LINE
  5
5D60
330
2
100
AcDbEntity
  8
構造
100
AcDbLine
 10
4307.612032814492
 20
22.80329538946717
 30
0.0
 11
4351.69857504521
 21
-0.836573536898868
 31
0.0
  0
LINE
  5
5D61
330
2
100
AcDbEntity
  8
構造
100
AcDbLine
 10
4312.47203281449
 20
31.22106231425118
 30
0.0
 11
4354.988030962219
 21
4.860931240617219
 31
0.0
  0
LINE
  5
5D62
330
2
100
AcDbEntity
  8
構造
100
AcDbLine
 10
4434.887016297362
 20
-53.56570193142102
 30
0.0
 11
4436.445862024173
 21
-54.46570193142134
 31
0.0
  0
ARC
  5
5D63
330
2
100
AcDbEntity
  8
構造
100
AcDbCircle
 10
4530.455676898857
 20
-100.2436978933154
 30
0.0
 40
1.0
100
AcDbArc
 50
266.1048540090999
 51
33.89514599089885
  0
LWPOLYLINE
  5
5D64
330
2
100
AcDbEntity
  8
構造
100
AcDbPolyline
 90
        6
 70
     0
 43
0.75
 10
4495.572832096468
 20
-85.20785443619206
 10
4523.285645017568
 20
-101.2078544361921
 10
4530.387746130691
 20
-101.2413879307198
 42
0.6235977729862329
 10
4531.28573643227
 20
-99.68602310368351
 10
4527.706500301489
 20
-93.55268479266033
 10
4500.024453784486
 20
-77.49741949646841
  0
LINE
  5
5D65
330
2
100
AcDbEntity
  8
構造
100
AcDbLine
 10
4310.913187087679
 20
32.12106231425128
 30
0.0
 11
4312.472032814492
 21
31.22106231425164
 31
0.0
  0
LINE
  5
5D66
330
2
100
AcDbEntity
  8
構造
100
AcDbLine
 10
4306.05318708768
 20
23.70329538946703
 30
0.0
 11
4307.612032814492
 21
22.80329538946671
 31
0.0
  0
LINE
  5
5D67
330
2
100
AcDbEntity
  8
構造
100
AcDbLine
 10
4312.472032814492
 20
31.22106231425164
 30
0.0
 11
4307.612032814492
 21
22.80329538946717
 31
0.0
  0
LINE
  5
5D68
330
2
100
AcDbEntity
  8
構造
100
AcDbLine
 10
4310.913187087679
 20
32.12106231425105
 30
0.0
 11
4306.05318708768
 21
23.70329538946703
 31
0.0
  0
LINE
  5
5D69
330
2
100
AcDbEntity
  8
構造
100
AcDbLine
 10
4304.803187087678
 20
21.53823188000592
 30
0.0
 11
4306.362032814492
 21
20.63823188000561
 31
0.0
  0
LINE
  5
5D6A
330
2
100
AcDbEntity
  8
構造
100
AcDbLine
 10
4249.578071491254
 20
66.76777386161439
 30
0.0
 11
4312.82195280102
 21
33.99269428430716
 31
0.0
  0
LINE
  5
5D6B
330
2
100
AcDbEntity
  8
構造
100
AcDbLine
 10
4245.380696931868
 20
59.49770786633917
 30
0.0
 11
4304.684511013611
 21
21.5635931194588
 31
0.0
  0
LINE
  5
5D6C
330
2
100
AcDbEntity
  8
構造
100
AcDbLine
 10
4312.821952801021
 20
33.99269428430603
 30
0.0
 11
4357.789233259688
 21
6.112755942114973
 31
0.0
  0
LINE
  5
5D6D
330
2
100
AcDbEntity
  8
構造
100
AcDbLine
 10
4306.411719467718
 20
20.56480306882827
 30
0.0
 11
4350.427948681057
 21
-3.03736295704789
 31
0.0
  0
LINE
  5
5D6E
330
2
100
AcDbEntity
  8
構造
100
AcDbLine
 10
4500.024453784486
 20
-77.49741949646864
 30
0.0
 11
4527.706500301489
 21
-93.55268479266033
 31
0.0
  0
LINE
  5
5D6F
330
2
100
AcDbEntity
  8
構造
100
AcDbLine
 10
4495.572832096468
 20
-85.20785443619206
 30
0.0
 11
4523.285645017568
 21
-101.2078544361921
 31
0.0
  0
LINE
  5
5D70
330
2
100
AcDbEntity
  8
中心線
 62
     1
100
AcDbLine
 10
4304.152659108519
 20
322.7757779252843
 30
0.0
 11
4144.152659108644
 21
322.7757779252847
 31
0.0
  0
LINE
  5
5D71
330
2
100
AcDbEntity
  8
中心線
100
AcDbLine
 10
4330.884707896616
 20
322.7757779252845
 30
0.0
 11
4425.778110357132
 21
322.7757779252847
 31
0.0
  0
LINE
  5
5D72
330
2
100
AcDbEntity
  8
文字
100
AcDbLine
 10
4010.367697585235
 20
236.4914712790014
 30
0.0
 11
4020.446106495048
 21
230.6726991819178
 31
0.0
  0
SOLID
  5
5D73
330
2
100
AcDbEntity
  8
文字
100
AcDbTrace
 10
4015.014811902265
 20
235.5405093846782
 30
0.0
 11
4013.514811902265
 21
232.9424331733248
 31
0.0
 12
4006.470583268205
 22
238.7414712790014
 32
0.0
 13
4006.470583268205
 23
238.7414712790014
 33
0.0
  0
LINE
  5
5D74
330
2
100
AcDbEntity
  8
文字
100
AcDbLine
 10
4013.729208961353
 20
219.0386913843245
 30
0.0
 11
4020.446106495048
 21
230.6726991819178
 31
0.0
  0
TEXT
  5
5D75
330
2
100
AcDbEntity
  8
文字
100
AcDbText
 10
3999.175868675011
 20
240.0652223661421
 30
0.0
 40
6.0
  1
Ａ
 50
329.9999999999995
 41
0.8
  7
STYLE1
100
AcDbText
  0
LINE
  5
5D76
330
2
100
AcDbEntity
  8
文字
100
AcDbLine
 10
3977.466789586498
 20
180.5970942606427
 30
0.0
 11
3987.445835881273
 21
174.6095179631793
 31
0.0
  0
SOLID
  5
5D77
330
2
100
AcDbEntity
  8
文字
100
AcDbTrace
 10
3980.553724706221
 20
176.9955901905869
 30
0.0
 11
3982.09724012431
 21
179.5680520764313
 31
0.0
 12
3973.608096757733
 22
182.9123673877762
 32
0.0
 13
3973.608096757733
 23
182.9123673877762
 33
0.0
  0
LINE
  5
5D78
330
2
100
AcDbEntity
  8
文字
100
AcDbLine
 10
3994.357592484594
 20
186.12882656088
 30
0.0
 11
3987.445835881273
 21
174.6095179631793
 31
0.0
  0
TEXT
  5
5D79
330
2
100
AcDbEntity
  8
文字
100
AcDbText
 10
3966.175598061236
 20
184.0020411474036
 30
0.0
 40
6.0
  1
Ａ
 50
329.9999999999995
 41
0.8
  7
STYLE1
100
AcDbText
  0
LINE
  5
5D7A
330
2
100
AcDbEntity
  8
文字
100
AcDbLine
 10
4321.116852634537
 20
57.08036296083742
 30
0.0
 11
4331.19526154435
 21
51.26159086375378
 31
0.0
  0
SOLID
  5
5D7B
330
2
100
AcDbEntity
  8
文字
100
AcDbTrace
 10
4325.763966951567
 20
56.12940106651422
 30
0.0
 11
4324.263966951567
 21
53.53132485516085
 31
0.0
 12
4317.219738317508
 22
59.33036296083765
 32
0.0
 13
4317.219738317508
 23
59.33036296083765
 33
0.0
  0
LINE
  5
5D7C
330
2
100
AcDbEntity
  8
文字
100
AcDbLine
 10
4324.478364010656
 20
39.62758306616047
 30
0.0
 11
4331.19526154435
 21
51.26159086375378
 31
0.0
  0
TEXT
  5
5D7D
330
2
100
AcDbEntity
  8
文字
100
AcDbText
 10
4309.925023724314
 20
60.65411404797783
 30
0.0
 40
6.0
  1
Ｂ
 50
329.9999999999995
 41
0.8
  7
STYLE1
100
AcDbText
  0
LINE
  5
5D7E
330
2
100
AcDbEntity
  8
文字
100
AcDbLine
 10
4288.215944635802
 20
1.185985942478965
 30
0.0
 11
4298.194990930575
 21
-4.801590354984683
 31
0.0
  0
SOLID
  5
5D7F
330
2
100
AcDbEntity
  8
文字
100
AcDbTrace
 10
4291.302879755523
 20
-2.415518127576888
 30
0.0
 11
4292.846395173612
 21
0.156943758267289
 31
0.0
 12
4284.357251807034
 22
3.501259069612615
 32
0.0
 13
4284.357251807034
 23
3.501259069612615
 33
0.0
  0
LINE
  5
5D80
330
2
100
AcDbEntity
  8
文字
100
AcDbLine
 10
4305.106747533897
 20
6.717718242716046
 30
0.0
 11
4298.194990930575
 21
-4.801590354984683
 31
0.0
  0
TEXT
  5
5D81
330
2
100
AcDbEntity
  8
文字
100
AcDbText
 10
4276.924753110539
 20
4.590932829239591
 30
0.0
 40
6.0
  1
Ｂ
 50
329.9999999999995
 41
0.8
  7
STYLE1
100
AcDbText
  0
LINE
  5
5D82
330
2
100
AcDbEntity
  8
構造
100
AcDbLine
 10
4133.346735108156
 20
149.4459086120214
 30
0.0
 11
4126.905199408552
 21
138.288841501535
 31
0.0
  0
LINE
  5
5D83
330
2
100
AcDbEntity
  8
構造
100
AcDbLine
 10
4136.810836723295
 20
147.4459086120214
 30
0.0
 11
4130.369301023689
 21
136.2888415015345
 31
0.0
  0
LINE
  5
5D84
330
2
100
AcDbEntity
  8
構造
100
AcDbLine
 10
4122.105199408552
 20
129.9749976252047
 30
0.0
 11
4121.943148600982
 21
133.6943173930881
 31
0.0
  0
LINE
  5
5D85
330
2
100
AcDbEntity
  8
構造
100
AcDbLine
 10
4121.943148600982
 20
133.6943173930881
 30
0.0
 11
4127.06725021612
 21
134.569521733652
 31
0.0
  0
LINE
  5
5D86
330
2
100
AcDbEntity
  8
構造
100
AcDbLine
 10
4127.06725021612
 20
134.569521733652
 30
0.0
 11
4126.905199408552
 21
138.288841501535
 31
0.0
  0
LINE
  5
5D87
330
2
100
AcDbEntity
  8
構造
100
AcDbLine
 10
4122.105199408552
 20
129.9749976252044
 30
0.0
 11
4115.663663708946
 21
118.8179305147189
 31
0.0
  0
LINE
  5
5D88
330
2
100
AcDbEntity
  8
構造
100
AcDbLine
 10
4125.56930102369
 20
127.9749976252047
 30
0.0
 11
4125.40725021612
 21
131.6943173930881
 31
0.0
  0
LINE
  5
5D89
330
2
100
AcDbEntity
  8
構造
100
AcDbLine
 10
4125.40725021612
 20
131.6943173930881
 30
0.0
 11
4130.531351831258
 21
132.569521733652
 31
0.0
  0
LINE
  5
5D8A
330
2
100
AcDbEntity
  8
構造
100
AcDbLine
 10
4130.531351831258
 20
132.569521733652
 30
0.0
 11
4130.369301023689
 21
136.288841501535
 31
0.0
  0
LINE
  5
5D8B
330
2
100
AcDbEntity
  8
構造
100
AcDbLine
 10
4125.569301023689
 20
127.9749976252047
 30
0.0
 11
4119.127765324083
 21
116.8179305147189
 31
0.0
  0
LINE
  5
5D8C
330
2
100
AcDbEntity
  8
構造
100
AcDbLine
 10
4130.369301023689
 20
136.288841501535
 30
0.0
 11
4249.873281237142
 21
67.29318635606592
 31
0.0
  0
LINE
  5
5D8D
330
2
100
AcDbEntity
  8
構造
100
AcDbLine
 10
4130.400266146155
 20
135.5781434567164
 30
0.0
 11
4249.573281237132
 21
66.7735711138007
 31
0.0
  0
LINE
  5
5D8E
330
2
100
AcDbEntity
  8
構造
100
AcDbLine
 10
4130.531351831258
 20
132.569521733652
 30
0.0
 11
4248.409373005927
 21
64.51261447691604
 31
0.0
  0
LINE
  5
5D8F
330
2
100
AcDbEntity
  8
構造
100
AcDbLine
 10
4125.40725021612
 20
131.6943173930877
 30
0.0
 11
4246.749373005936
 21
61.63741013634649
 31
0.0
  0
LINE
  5
5D90
330
2
100
AcDbEntity
  8
構造
100
AcDbLine
 10
4125.538335901223
 20
128.6856956700233
 30
0.0
 11
4245.37328123714
 21
59.49895772200716
 31
0.0
  0
LINE
  5
5D91
330
2
100
AcDbEntity
  8
構造
100
AcDbLine
 10
4125.56930102369
 20
127.9749976252047
 30
0.0
 11
4245.073281237143
 21
58.97934247973581
 31
0.0
  0
LINE
  5
5D92
330
2
100
AcDbEntity
  8
構造
100
AcDbLine
 10
4384.870262705419
 20
4.228732246218215
 30
0.0
 11
4378.428727005812
 21
-6.928334864267981
 31
0.0
  0
LINE
  5
5D93
330
2
100
AcDbEntity
  8
構造
100
AcDbLine
 10
4388.334364320555
 20
2.228732246218215
 30
0.0
 11
4381.89282862095
 21
-8.928334864268663
 31
0.0
  0
LINE
  5
5D94
330
2
100
AcDbEntity
  8
構造
100
AcDbLine
 10
4373.628727005813
 20
-15.24217874059855
 30
0.0
 11
4373.466676198244
 21
-11.52285897271531
 31
0.0
  0
LINE
  5
5D95
330
2
100
AcDbEntity
  8
構造
100
AcDbLine
 10
4373.466676198244
 20
-11.52285897271531
 30
0.0
 11
4378.590777813381
 21
-10.64765463215122
 31
0.0
  0
LINE
  5
5D96
330
2
100
AcDbEntity
  8
構造
100
AcDbLine
 10
4378.590777813381
 20
-10.64765463215122
 30
0.0
 11
4378.428727005812
 21
-6.928334864267981
 31
0.0
  0
LINE
  5
5D97
330
2
100
AcDbEntity
  8
構造
100
AcDbLine
 10
4373.628727005813
 20
-15.24217874059855
 30
0.0
 11
4367.187191306206
 21
-26.39924585108429
 31
0.0
  0
LINE
  5
5D98
330
2
100
AcDbEntity
  8
構造
100
AcDbLine
 10
4377.092828620951
 20
-17.24217874059809
 30
0.0
 11
4376.930777813381
 21
-13.52285897271508
 31
0.0
  0
LINE
  5
5D99
330
2
100
AcDbEntity
  8
構造
100
AcDbLine
 10
4376.930777813381
 20
-13.52285897271508
 30
0.0
 11
4382.054879428519
 21
-12.64765463215099
 31
0.0
  0
LINE
  5
5D9A
330
2
100
AcDbEntity
  8
構造
100
AcDbLine
 10
4382.054879428519
 20
-12.64765463215099
 30
0.0
 11
4381.89282862095
 21
-8.928334864268209
 31
0.0
  0
LINE
  5
5D9B
330
2
100
AcDbEntity
  8
構造
100
AcDbLine
 10
4377.092828620951
 20
-17.24217874059855
 30
0.0
 11
4370.651292921344
 21
-28.39924585108429
 31
0.0
  0
LINE
  5
5D9C
330
2
100
AcDbEntity
  8
構造
100
AcDbLine
 10
4373.742828620951
 20
-23.04454894595392
 30
0.0
 11
4535.334102285689
 21
-116.3393142949853
 31
0.0
  0
LINE
  5
5D9D
330
2
100
AcDbEntity
  8
構造
100
AcDbLine
 10
4397.187558293484
 20
-29.86307861194359
 30
0.0
 11
4434.78304170123
 21
-53.54967373880163
 31
0.0
  0
LINE
  5
5D9E
330
2
100
AcDbEntity
  8
構造
100
AcDbLine
 10
4402.870213364424
 20
-20.02043130719107
 30
0.0
 11
4442.757438278431
 21
-41.03946009397941
 31
0.0
  0
LINE
  5
5D9F
330
2
100
AcDbEntity
  8
構造
100
AcDbLine
 10
4385.242828620951
 20
-3.125964658911926
 30
0.0
 11
4546.834102285689
 21
-96.42073000794358
 31
0.0
  0
LINE
  5
5DA0
330
2
100
AcDbEntity
  8
構造
100
AcDbLine
 10
4133.71930102369
 20
142.0912117068913
 30
0.0
 11
4381.778727005814
 21
-1.125964658912835
 31
0.0
  0
LINE
  5
5DA1
330
2
100
AcDbEntity
  8
構造
100
AcDbLine
 10
4122.21930102369
 20
122.1726274198491
 30
0.0
 11
4370.278727005812
 21
-21.04454894595392
 31
0.0
  0
LINE
  5
5DA2
330
2
100
AcDbEntity
  8
枠
  6
Continuous
100
AcDbLine
 10
3606.108272588094
 20
-311.2096604492353
 30
0.0
 11
4584.183272588094
 21
-311.209660449236
 31
0.0
  0
LINE
  5
5DA3
330
2
100
AcDbEntity
  8
枠
  6
Continuous
100
AcDbLine
 10
3606.108272588094
 20
-326.3971604492353
 30
0.0
 11
4584.183272588094
 21
-326.3971604492358
 31
0.0
  0
LINE
  5
5DA4
330
2
100
AcDbEntity
  8
枠
  6
Continuous
100
AcDbLine
 10
3606.108272588094
 20
-296.0221604492356
 30
0.0
 11
4584.183272588094
 21
-296.022160449236
 31
0.0
  0
LINE
  5
5DA5
330
2
100
AcDbEntity
  8
枠
  6
Continuous
100
AcDbLine
 10
3606.108272588094
 20
-303.6159104492356
 30
0.0
 11
4821.108272588093
 21
-303.6159104492363
 31
0.0
  0
LINE
  5
5DA6
330
2
100
AcDbEntity
  8
枠
  6
Continuous
100
AcDbLine
 10
3606.108272588094
 20
-318.8034104492353
 30
0.0
 11
4821.108272588093
 21
-318.803410449236
 31
0.0
  0
LWPOLYLINE
  5
5DA7
330
2
100
AcDbEntity
  8
枠
  6
Continuous
100
AcDbPolyline
 90
        2
 70
     0
 43
0.9112499999999996
 10
3606.108272588094
 20
-333.9909104492353
 10
4821.108272588094
 20
-333.990910449236
  0
LWPOLYLINE
  5
5DA8
330
2
100
AcDbEntity
  8
枠
  6
Continuous
100
AcDbPolyline
 90
        2
 70
     0
 43
0.9112499999999996
 10
3606.108272588094
 20
513.9534645507649
 10
4821.108272588095
 20
513.9534645507642
  0
LWPOLYLINE
  5
5DA9
330
2
100
AcDbEntity
  8
枠
  6
Continuous
100
AcDbPolyline
 90
        2
 70
     0
 43
0.9112499999999996
 10
3606.108272588094
 20
-288.4284104492353
 10
4821.108272588093
 20
-288.4284104492363
  0
LWPOLYLINE
  5
5DAA
330
2
100
AcDbEntity
  8
枠
  6
Continuous
100
AcDbPolyline
 90
        2
 70
     0
 43
0.9112499999999996
 10
3606.108272588094
 20
-334.4465354492354
 10
3606.108272588094
 20
514.4090895507647
  0
LWPOLYLINE
  5
5DAB
330
2
100
AcDbEntity
  8
枠
100
AcDbPolyline
 90
        3
 70
     0
 43
0.0
 10
3598.514522588094
 20
-340.0659104492356
 10
3592.439522588095
 20
-340.0659104492352
 10
3592.439522588095
 20
-333.9909104492353
  0
LINE
  5
5DAC
330
2
100
AcDbEntity
  8
枠
100
AcDbLine
 10
3592.439522588095
 20
149.4708037840378
 30
0.0
 11
3598.514522588094
 21
149.4708037840376
 31
0.0
  0
LWPOLYLINE
  5
5DAD
330
2
100
AcDbEntity
  8
枠
100
AcDbPolyline
 90
        3
 70
     0
 43
0.0
 10
3598.514522588094
 20
520.028464550765
 10
3592.439522588096
 20
520.0284645507647
 10
3592.439522588095
 20
513.9534645507647
  0
LWPOLYLINE
  5
5DAE
330
2
100
AcDbEntity
  8
枠
  6
Continuous
100
AcDbPolyline
 90
        2
 70
     0
 43
0.9112499999999996
 10
4821.108272588093
 20
-334.4465354492361
 10
4821.108272588094
 20
514.4090895507638
  0
TEXT
  5
5DAF
330
2
100
AcDbEntity
  8
枠
100
AcDbText
 10
4418.192989721901
 20
-295.0337659416373
 30
0.0
 40
4.556249999999999
  1
※Ａ3出力図面では、縮尺がオリジナル（Ａ1）の1/2になります。
  7
KKZ-Y
 72
     1
 11
4500.053614721901
 21
-295.6412659416374
 31
0.0
100
AcDbText
 73
     1
  0
LWPOLYLINE
  5
5DB0
330
2
100
AcDbEntity
  8
枠
  6
Continuous
100
AcDbPolyline
 90
        2
 70
     0
 43
0.9112499999999996
 10
4584.183272588094
 20
-288.428410449236
 10
4584.183272588094
 20
-333.9909104492358
  0
LWPOLYLINE
  5
5DB1
330
2
100
AcDbEntity
  8
枠
  6
Continuous
100
AcDbPolyline
 90
        2
 70
     0
 43
0.0
 10
4584.183272588094
 20
-288.428410449236
 10
4584.183272588094
 20
-333.990910449236
  0
LWPOLYLINE
  5
5DB2
330
2
100
AcDbEntity
  8
枠
  6
Continuous
100
AcDbPolyline
 90
        2
 70
     0
 43
0.0
 10
4638.858272588093
 20
-288.4284104492363
 10
4638.858272588093
 20
-333.9909104492365
  0
LWPOLYLINE
  5
5DB3
330
2
100
AcDbEntity
  8
枠
  6
Continuous
100
AcDbPolyline
 90
        2
 70
     0
 43
0.0
 10
4760.358272588093
 20
-318.803410449236
 10
4760.358272588094
 20
-288.4284104492363
  0
LINE
  5
5DB4
330
2
100
AcDbEntity
  8
文字
  6
ByBlock
100
AcDbLine
 10
4477.054245974841
 20
-117.2829864831899
 30
0.0
 11
4469.205527560429
 21
-130.8773655512537
 31
0.0
  0
LINE
  5
5DB5
330
2
100
AcDbEntity
  8
文字
  6
ByBlock
100
AcDbLine
 10
3747.2007368969
 20
304.0981334519543
 30
0.0
 11
3739.352018482487
 21
290.503754383891
 31
0.0
  0
LINE
  5
5DB6
330
2
100
AcDbEntity
  8
文字
  6
ByBlock
100
AcDbLine
 10
4467.183413243398
 20
-125.379770287062
 30
0.0
 11
3741.227018482487
 21
293.7513496480824
 31
0.0
  0
SOLID
  5
5DB7
330
2
100
AcDbEntity
  8
文字
  6
ByBlock
100
AcDbTrace
 10
4467.558413243398
 20
-124.7302512342237
 30
0.0
 11
4466.808413243398
 21
-126.0292893399003
 31
0.0
 12
4471.080527560429
 22
-127.629770287062
 32
0.0
 13
4471.080527560429
 23
-127.629770287062
 33
0.0
  0
SOLID
  5
5DB8
330
2
100
AcDbEntity
  8
文字
  6
ByBlock
100
AcDbTrace
 10
3745.499132799517
 20
292.1508687009209
 30
0.0
 11
3744.749132799517
 21
290.8518305952443
 31
0.0
 12
3741.227018482487
 22
293.7513496480826
 32
0.0
 13
3741.227018482487
 23
293.7513496480826
 33
0.0
  0
LINE
  5
5DB9
330
2
100
AcDbEntity
  8
文字
  6
ByBlock
100
AcDbLine
 10
4240.785781237142
 20
51.5531746422846
 30
0.0
 11
4225.807195115514
 21
25.60950245407957
 31
0.0
  0
LINE
  5
5DBA
330
2
100
AcDbEntity
  8
文字
  6
ByBlock
100
AcDbLine
 10
4491.095332096467
 20
-92.96311192708163
 30
0.0
 11
4476.116745974839
 21
-118.9067841152869
 31
0.0
  0
LINE
  5
5DBB
330
2
100
AcDbEntity
  8
文字
  6
ByBlock
100
AcDbLine
 10
4231.579309432544
 20
26.60709771827123
 30
0.0
 11
4474.09463165781
 21
-113.4091888510952
 31
0.0
  0
SOLID
  5
5DBC
330
2
100
AcDbEntity
  8
文字
  6
ByBlock
100
AcDbTrace
 10
4231.954309432544
 20
27.25661677110929
 30
0.0
 11
4231.204309432544
 21
25.95757866543295
 31
0.0
 12
4227.682195115514
 22
28.85709771827123
 32
0.0
 13
4227.682195115514
 23
28.85709771827123
 33
0.0
  0
SOLID
  5
5DBD
330
2
100
AcDbEntity
  8
文字
  6
ByBlock
100
AcDbTrace
 10
4474.46963165781
 20
-112.7596697982569
 30
0.0
 11
4473.71963165781
 21
-114.0587079039335
 31
0.0
 12
4477.991745974839
 22
-115.6591888510952
 32
0.0
 13
4477.991745974839
 23
-115.6591888510952
 33
0.0
  0
LINE
  5
5DBE
330
2
100
AcDbEntity
  8
文字
  6
ByBlock
100
AcDbLine
 10
3763.929323018526
 20
333.0728945534029
 30
0.0
 11
3746.263236896898
 21
302.4743358198566
 31
0.0
  0
LINE
  5
5DBF
330
2
100
AcDbEntity
  8
文字
  6
ByBlock
100
AcDbLine
 10
3748.138236896898
 20
305.7219310840485
 30
0.0
 11
4223.785080798483
 21
31.10709771827055
 31
0.0
  0
SOLID
  5
5DC0
330
2
100
AcDbEntity
  8
文字
  6
ByBlock
100
AcDbTrace
 10
3752.410351213929
 20
304.1214501368868
 30
0.0
 11
3751.660351213929
 21
302.8224120312102
 31
0.0
 12
3748.138236896898
 22
305.7219310840483
 32
0.0
 13
3748.138236896898
 23
305.7219310840483
 33
0.0
  0
SOLID
  5
5DC1
330
2
100
AcDbEntity
  8
文字
  6
ByBlock
100
AcDbTrace
 10
4224.160080798483
 20
31.75661677110884
 30
0.0
 11
4223.410080798483
 21
30.45757866543227
 31
0.0
 12
4227.682195115514
 22
28.85709771827055
 32
0.0
 13
4227.682195115514
 23
28.85709771827055
 33
0.0
  0
ARC
  5
5DC2
330
2
100
AcDbEntity
  8
寸法
  6
ByBlock
100
AcDbCircle
 10
3866.775206704598
 20
282.932400229239
 30
0.0
 40
21.6838976159183
100
AcDbArc
 50
341.9118777278676
 51
348.0881222721313
  0
SOLID
  5
5DC3
330
2
100
AcDbEntity
  8
寸法
  6
ByBlock
100
AcDbTrace
 10
3888.072412920003
 20
275.8944179437683
 30
0.0
 11
3886.702564316658
 21
276.5055765188633
 31
0.0
 12
3885.554012893044
 22
272.0904514212798
 32
0.0
 13
3885.554012893044
 23
272.0904514212798
 33
0.0
  0
SOLID
  5
5DC4
330
2
100
AcDbEntity
  8
寸法
  6
ByBlock
100
AcDbTrace
 10
3887.246216482127
 20
278.5345140220377
 30
0.0
 11
3888.73811945951
 21
278.3788685721381
 31
0.0
 12
3888.459104320516
 22
282.9324002292385
 32
0.0
 13
3888.459104320516
 23
282.9324002292385
 33
0.0
  0
TEXT
  5
5DC5
330
2
100
AcDbEntity
  8
文字
100
AcDbText
 10
4341.303704730681
 20
-34.57724793431612
 30
0.0
 40
6.0
  1
拘束長部
 50
329.9999999999995
 41
0.8
  7
STYLE1
100
AcDbText
  0
TEXT
  5
5DC6
330
2
100
AcDbEntity
  8
文字
100
AcDbText
 10
4072.312906222333
 20
221.6202291442285
 30
0.0
 40
6.0
  1
PC鋼より線 φ15.2
 50
329.9999999999995
 41
0.8
  7
STYLE1
100
AcDbText
  0
TEXT
  5
5DC7
330
2
100
AcDbEntity
  8
文字
100
AcDbText
 10
4094.80341931521
 20
92.3728289488381
 30
0.0
 40
6.0
  1
アンカー長
 50
329.9999999999995
 41
0.8
  7
STYLE1
100
AcDbText
  0
TEXT
  5
5DC8
330
2
100
AcDbEntity
  8
文字
100
AcDbText
 10
4200.570971503256
 20
145.4994188679777
 30
0.0
 40
6.0
  1
ポリエチレンシース
 50
329.9999999999995
 41
0.8
  7
STYLE1
100
AcDbText
  0
TEXT
  5
5DC9
330
2
100
AcDbEntity
  8
文字
100
AcDbText
 10
3904.860679745751
 20
429.5835462931527
 30
0.0
 40
6.0
  1
親杭
 41
0.8
  7
STYLE1
100
AcDbText
  0
LINE
  5
5DCA
330
2
100
AcDbEntity
  8
文字
100
AcDbLine
 10
3902.985679745751
 20
427.7085462931525
 30
0.0
 11
3920.822243794434
 21
427.7085462931525
 31
0.0
  0
TEXT
  5
5DCB
330
2
100
AcDbEntity
  8
寸法
100
AcDbText
 10
3885.033669247853
 20
274.8837375878763
 30
0.0
 40
6.0
  1
α
 50
73.11939437577719
 41
0.8
  7
STYLE1
100
AcDbText
  0
TEXT
  5
5DCC
330
2
100
AcDbEntity
  8
文字
100
AcDbText
 10
4562.333843090732
 20
-131.2477953076689
 30
0.0
 40
6.0
  1
削孔径
 50
60.00000000000271
 41
0.8
  7
STYLE1
100
AcDbText
  0
TEXT
  5
5DCD
330
2
100
AcDbEntity
  8
文字
100
AcDbText
 10
3989.298924928473
 20
168.652806440524
 30
0.0
 40
6.0
  1
自由長部
 50
329.9999999999995
 41
0.8
  7
STYLE1
100
AcDbText
  0
LINE
  5
5DCE
330
2
100
AcDbEntity
  8
構造
  6
Continuous
100
AcDbLine
 10
3998.7141088534
 20
320.9909787703248
 30
0.0
 11
4003.906416545708
 21
320.9909787703248
 31
0.0
  0
LWPOLYLINE
  5
5DCF
330
2
100
AcDbEntity
  8
構造
  6
Continuous
100
AcDbPolyline
 90
       40
 70
     1
 43
0.0
 10
3990.752570391861
 20
310.2445172318635
 10
3993.289993468784
 20
310.6527480010939
 10
3995.719762699554
 20
311.4896326164785
 10
3997.9701088534
 20
312.7304787703247
 10
3999.974685776478
 20
314.3387095395553
 10
4001.673955007247
 20
316.2666710780172
 10
4003.017608853401
 20
318.4570172318631
 10
4003.966185776477
 20
320.8454787703247
 10
4004.491070391862
 20
323.3578633857092
 10
3995.054685776478
 20
323.3578633857092
 10
3994.850224238015
 20
323.3578633857094
 10
3994.521839622631
 20
322.5940172318628
 10
3994.078762699554
 20
321.8891326164787
 10
3993.531955007246
 20
321.261440308786
 10
3992.894685776476
 20
320.7258249241709
 10
3992.182301161093
 20
320.2952095395556
 10
3991.411762699554
 20
319.9799787703246
 10
3990.601762699555
 20
319.7878633857092
 10
3989.771801161093
 20
319.7232480010941
 10
3988.941839622632
 20
319.7878633857092
 10
3988.131839622631
 20
319.9800941549399
 10
3987.361301161093
 20
320.2952095395556
 10
3986.648801161092
 20
320.7258249241709
 10
3986.011531930323
 20
321.261440308786
 10
3985.464724238015
 20
321.8891326164787
 10
3985.021647314938
 20
322.5940172318631
 10
3984.693262699554
 20
323.3578633857094
 10
3984.573378084169
 20
323.3578633857094
 10
3974.821762699554
 20
323.3578633857092
 10
3975.346531930324
 20
320.8457095395559
 10
3976.295108853401
 20
318.4572480010938
 10
3977.638878084169
 20
316.2666710780168
 10
3979.338031930323
 20
314.3389403087863
 10
3981.342493468786
 20
312.7305941549403
 10
3983.593070391862
 20
311.4896326164787
 10
3986.0226088534
 20
310.6527480010941
 10
3988.560262699555
 20
310.244517231863
 10
3988.560262699555
 20
311.9347864626325
 10
3990.752570391861
 20
311.9347864626325
 10
3990.752570391861
 20
310.2445172318635
  0
LINE
  5
5DD0
330
2
100
AcDbEntity
  8
中心線
100
AcDbLine
 10
3969.598724238016
 20
325.0504403087864
 30
0.0
 11
4009.598724238016
 21
325.0504403087862
 31
0.0
  0
LINE
  5
5DD1
330
2
100
AcDbEntity
  8
構造
  6
Continuous
100
AcDbLine
 10
3980.367955007246
 20
320.8755941549402
 30
0.0
 11
3975.291031930324
 21
320.87559415494
 31
0.0
  0
LWPOLYLINE
  5
5DD2
330
2
100
AcDbEntity
  8
構造
  6
Continuous
100
AcDbPolyline
 90
       39
 70
     1
 43
0.0
 10
3989.656416545708
 20
319.6640556934015
 10
3988.826455007247
 20
319.728671078017
 10
3988.016455007247
 20
319.9209018472479
 10
3987.245916545708
 20
320.2360172318629
 10
3986.533416545708
 20
320.6666326164786
 10
3985.89614731494
 20
321.2022480010939
 10
3985.349339622631
 20
321.8299403087863
 10
3984.906262699555
 20
322.5348249241708
 10
3984.577878084171
 20
323.2986710780169
 10
3984.521801161093
 20
323.2986710780172
 10
3981.637185776478
 20
320.87559415494
 10
3980.425762699555
 20
320.87559415494
 10
3981.095801161092
 20
319.5935556934014
 10
3981.945147314939
 20
318.4204403087861
 10
3982.955455007247
 20
317.3825556934016
 10
3984.10537808417
 20
316.5018249241709
 10
3985.370570391863
 20
315.7968249241708
 10
3986.724493468785
 20
315.282324924171
 10
3988.138647314939
 20
314.9692864626322
 10
3989.583262699555
 20
314.8641710780169
 10
3991.043339622632
 20
314.97159415494
 10
3992.472031930323
 20
315.2913249241708
 10
3993.838531930323
 20
315.8167864626325
 10
3995.113416545708
 20
316.536440308786
 10
3996.269455007247
 20
317.4349403087863
 10
3997.281493468784
 20
318.4926710780171
 10
3998.127839622631
 20
319.6872480010938
 10
3998.789801161093
 20
320.9909787703248
 10
3997.560262699554
 20
320.9909787703248
 10
3994.812955007247
 20
323.2986710780172
 10
3994.734839622631
 20
323.2986710780172
 10
3994.406455007247
 20
322.5348249241711
 10
3993.963378084169
 20
321.8299403087863
 10
3993.416570391862
 20
321.2022480010939
 10
3992.779301161093
 20
320.6666326164784
 10
3992.066916545709
 20
320.2360172318631
 10
3991.29637808417
 20
319.9207864626328
 10
3990.486378084169
 20
319.7286710780168
 10
3989.656416545708
 20
319.6640556934015
  0
LWPOLYLINE
  5
5DD3
330
2
100
AcDbEntity
  8
構造
  6
Continuous
100
AcDbPolyline
 90
       37
 70
     1
 43
0.0
 10
3989.656416545708
 20
319.6640556934015
 10
3988.826455007247
 20
319.728671078017
 10
3988.016455007247
 20
319.9209018472479
 10
3987.245916545708
 20
320.2360172318629
 10
3986.533416545708
 20
320.6666326164786
 10
3985.89614731494
 20
321.2022480010939
 10
3985.349339622631
 20
321.8299403087863
 10
3984.906262699555
 20
322.5348249241708
 10
3984.577878084171
 20
323.2986710780169
 10
3984.521801161093
 20
323.2986710780172
 10
3981.737455007246
 20
320.9598249241706
 10
3982.345762699554
 20
319.8927480010939
 10
3983.098185776477
 20
318.9199403087864
 10
3983.979378084169
 20
318.061940308786
 10
3984.972031930323
 20
317.3355941549398
 10
3986.056416545708
 20
316.7554403087863
 10
3987.211416545707
 20
316.3325556934017
 10
3988.414070391862
 20
316.0755941549403
 10
3989.640955007247
 20
315.9892864626324
 10
3990.872224238016
 20
316.0761710780168
 10
3992.079031930324
 20
316.3349787703246
 10
3993.2376088534
 20
316.7607480010938
 10
3994.324993468785
 20
317.344824924171
 10
3995.319493468785
 20
318.0759018472477
 10
3996.201608853401
 20
318.9392095395553
 10
3996.953570391862
 20
319.9177864626326
 10
3997.560262699554
 20
320.9909787703248
 10
3994.812955007247
 20
323.2986710780172
 10
3994.734839622631
 20
323.2986710780172
 10
3994.406455007247
 20
322.5348249241711
 10
3993.963378084169
 20
321.8299403087863
 10
3993.416570391862
 20
321.2022480010939
 10
3992.779301161093
 20
320.6666326164784
 10
3992.066916545709
 20
320.2360172318631
 10
3991.29637808417
 20
319.9207864626328
 10
3990.486378084169
 20
319.7286710780168
 10
3989.656416545708
 20
319.6640556934015
  0
LWPOLYLINE
  5
5DD4
330
2
100
AcDbEntity
  8
構造
  6
Continuous
100
AcDbPolyline
 90
       37
 70
     1
 43
0.0
 10
3989.656416545708
 20
319.6640556934015
 10
3988.826455007247
 20
319.728671078017
 10
3988.016455007247
 20
319.9209018472479
 10
3987.245916545708
 20
320.2360172318629
 10
3986.533416545708
 20
320.6666326164786
 10
3985.89614731494
 20
321.2022480010939
 10
3985.349339622631
 20
321.8299403087863
 10
3984.906262699555
 20
322.5348249241708
 10
3984.577878084171
 20
323.2986710780169
 10
3984.521801161093
 20
323.2986710780172
 10
3983.494762699554
 20
322.4360556934016
 10
3983.918685776477
 20
321.5301710780168
 10
3984.474724238016
 20
320.697324924171
 10
3985.149839622631
 20
319.9575941549399
 10
3985.928685776477
 20
319.3279403087859
 10
3986.793262699554
 20
318.822671078017
 10
3987.724185776477
 20
318.4533249241711
 10
3988.699993468785
 20
318.2283249241709
 10
3989.698647314939
 20
318.1527480010939
 10
3990.691993468784
 20
318.227517231863
 10
3991.662955007247
 20
318.4502095395555
 10
3992.589493468785
 20
318.8157480010937
 10
3993.451070391862
 20
319.3159403087861
 10
3994.227955007247
 20
319.9394787703245
 10
3994.902724238016
 20
320.6722864626324
 10
3995.460031930324
 20
321.4977480010937
 10
3995.887185776477
 20
322.3963633857093
 10
3994.812955007247
 20
323.2986710780172
 10
3994.734839622631
 20
323.2986710780172
 10
3994.406455007247
 20
322.5348249241711
 10
3993.963378084169
 20
321.8299403087863
 10
3993.416570391862
 20
321.2022480010939
 10
3992.779301161093
 20
320.6666326164784
 10
3992.066916545709
 20
320.2360172318631
 10
3991.29637808417
 20
319.9207864626328
 10
3990.486378084169
 20
319.7286710780168
 10
3989.656416545708
 20
319.6640556934015
  0
LINE
  5
5DD5
330
2
100
AcDbEntity
  8
中心線
100
AcDbLine
 10
3989.598724238016
 20
345.0504403087864
 30
0.0
 11
3989.598724238016
 21
305.0504403087862
 31
0.0
  0
LINE
  5
5DD6
330
2
100
AcDbEntity
  8
構造
  6
Continuous
100
AcDbLine
 10
4082.384674540183
 20
333.1317122053158
 30
0.0
 11
4084.502174540184
 21
335.2492122053154
 31
0.0
  0
LINE
  5
5DD7
330
2
100
AcDbEntity
  8
構造
  6
Continuous
100
AcDbLine
 10
4049.528274540184
 20
332.4317122053155
 30
0.0
 11
4089.928274540185
 21
332.4317122053155
 31
0.0
  0
LINE
  5
5DD8
330
2
100
AcDbEntity
  8
構造
  6
Continuous
100
AcDbLine
 10
4093.728274540184
 20
323.450440308786
 30
0.0
 11
4048.828274540183
 21
323.4504403087863
 31
0.0
  0
LINE
  5
5DD9
330
2
100
AcDbEntity
  8
構造
  6
Continuous
100
AcDbLine
 10
4093.728274540184
 20
326.5504403087862
 30
0.0
 11
4048.928274540185
 21
326.5504403087862
 31
0.0
  0
LINE
  5
5DDA
330
2
100
AcDbEntity
  8
構造
  6
Continuous
100
AcDbLine
 10
4048.828274540184
 20
333.1317122053156
 30
0.0
 11
4093.65092636324
 21
333.1317122053156
 31
0.0
  0
LINE
  5
5DDB
330
2
100
AcDbEntity
  8
中心線
  6
CENTER
100
AcDbLine
 10
4047.328274540184
 20
325.0504403087862
 30
0.0
 11
4095.228274540183
 21
325.0504403087866
 31
0.0
  0
LINE
  5
5DDC
330
2
100
AcDbEntity
  8
構造
  6
Continuous
100
AcDbLine
 10
4077.828274540184
 20
335.7594122053156
 30
0.0
 11
4078.194174540185
 21
336.1253122053156
 31
0.0
  0
LINE
  5
5DDD
330
2
100
AcDbEntity
  8
構造
  6
Continuous
100
AcDbLine
 10
4077.828274540184
 20
333.9634122053155
 30
0.0
 11
4079.771174540183
 21
335.9063122053155
 31
0.0
  0
LINE
  5
5DDE
330
2
100
AcDbEntity
  8
構造
  6
Continuous
100
AcDbLine
 10
4078.792674540185
 20
333.1317122053156
 30
0.0
 11
4081.348174540184
 21
335.6873122053157
 31
0.0
  0
LINE
  5
5DDF
330
2
100
AcDbEntity
  8
構造
  6
Continuous
100
AcDbLine
 10
4080.588674540184
 20
333.1317122053156
 30
0.0
 11
4082.925174540185
 21
335.4682122053155
 31
0.0
  0
LINE
  5
5DE0
330
2
100
AcDbEntity
  8
構造
  6
Continuous
100
AcDbLine
 10
4077.828274540184
 20
333.1317122053156
 30
0.0
 11
4077.828274540184
 21
336.1317122053156
 31
0.0
  0
LINE
  5
5DE1
330
2
100
AcDbEntity
  8
構造
  6
Continuous
100
AcDbLine
 10
4049.528274540184
 20
326.5504403087864
 30
0.0
 11
4049.528274540184
 21
332.4317122053155
 31
0.0
  0
LINE
  5
5DE2
330
2
100
AcDbEntity
  8
構造
  6
Continuous
100
AcDbLine
 10
4049.528274540185
 20
323.3504403087861
 30
0.0
 11
4049.528274540185
 21
317.6691684122572
 31
0.0
  0
LINE
  5
5DE3
330
2
100
AcDbEntity
  8
構造
  6
Continuous
100
AcDbLine
 10
4084.180774540185
 20
333.1317122053156
 30
0.0
 11
4086.079274540184
 21
335.0302122053156
 31
0.0
  0
LINE
  5
5DE4
330
2
100
AcDbEntity
  8
構造
  6
Continuous
100
AcDbLine
 10
4085.976774540184
 20
333.1317122053158
 30
0.0
 11
4087.656274540183
 21
334.8111122053156
 31
0.0
  0
LINE
  5
5DE5
330
2
100
AcDbEntity
  8
構造
  6
Continuous
100
AcDbLine
 10
4087.772874540185
 20
333.1317122053156
 30
0.0
 11
4089.233274540184
 21
334.5921122053155
 31
0.0
  0
LINE
  5
5DE6
330
2
100
AcDbEntity
  8
構造
  6
Continuous
100
AcDbLine
 10
4089.568874540184
 20
333.1317122053158
 30
0.0
 11
4090.810274540183
 21
334.3731122053155
 31
0.0
  0
LINE
  5
5DE7
330
2
100
AcDbEntity
  8
構造
  6
Continuous
100
AcDbLine
 10
4091.364874540183
 20
333.1317122053156
 30
0.0
 11
4092.378074540184
 21
334.1449122053159
 31
0.0
  0
LINE
  5
5DE8
330
2
100
AcDbEntity
  8
構造
  6
Continuous
100
AcDbLine
 10
4093.160974540184
 20
333.1588926630868
 30
0.0
 11
4093.437474540185
 21
333.4354926630865
 31
0.0
  0
LINE
  5
5DE9
330
2
100
AcDbEntity
  8
構造
  6
Continuous
100
AcDbLine
 10
4089.928274540185
 20
332.4317122053155
 30
0.0
 11
4093.676174540185
 21
332.9968122053156
 31
0.0
  0
TEXT
  5
5DEA
330
2
100
AcDbEntity
  8
TITLE
100
AcDbText
 10
3995.495282991952
 20
442.5258203918584
 30
0.0
 40
8.0
  1
くさび　　S=1/3
 41
0.8
  7
STYLE1
100
AcDbText
  0
LINE
  5
5DEB
330
2
100
AcDbEntity
  8
TITLE
100
AcDbLine
 10
3996.108373021008
 20
440.4826452872212
 30
0.0
 11
4066.989990845934
 21
440.4826452872212
 31
0.0
  0
LINE
  5
5DEC
330
2
100
AcDbEntity
  8
寸法
  6
ByBlock
100
AcDbLine
 10
4048.828274540184
 20
310.1754403087864
 30
0.0
 11
4048.828274540183
 21
293.4254403087864
 31
0.0
  0
LINE
  5
5DED
330
2
100
AcDbEntity
  8
寸法
  6
ByBlock
100
AcDbLine
 10
4089.328274540183
 20
297.1754403087864
 30
0.0
 11
4053.328274540184
 21
297.1754403087862
 31
0.0
  0
SOLID
  5
5DEE
330
2
100
AcDbEntity
  8
寸法
  6
ByBlock
100
AcDbTrace
 10
4089.328274540183
 20
297.9254403087866
 30
0.0
 11
4089.328274540183
 21
296.4254403087864
 31
0.0
 12
4093.828274540184
 22
297.1754403087864
 32
0.0
 13
4093.828274540184
 23
297.1754403087864
 33
0.0
  0
SOLID
  5
5DEF
330
2
100
AcDbEntity
  8
寸法
  6
ByBlock
100
AcDbTrace
 10
4053.328274540184
 20
297.9254403087864
 30
0.0
 11
4053.328274540184
 21
296.4254403087864
 31
0.0
 12
4048.828274540183
 22
297.1754403087864
 32
0.0
 13
4048.828274540183
 23
297.1754403087864
 33
0.0
  0
LINE
  5
5DF0
330
2
100
AcDbEntity
  8
寸法
  6
ByBlock
100
AcDbLine
 10
4093.828274540183
 20
311.369884753231
 30
0.0
 11
4093.828274540183
 21
304.883582578316
 31
0.0
  0
LINE
  5
5DF1
330
2
100
AcDbEntity
  8
寸法
  6
ByBlock
100
AcDbLine
 10
4048.953274540183
 20
310.0504403087866
 30
0.0
 11
4033.42495542523
 21
310.0504403087864
 31
0.0
  0
LINE
  5
5DF2
330
2
100
AcDbEntity
  8
寸法
  6
ByBlock
100
AcDbLine
 10
4037.174955425231
 20
335.5504403087864
 30
0.0
 11
4037.174955425231
 21
314.5504403087866
 31
0.0
  0
SOLID
  5
5DF3
330
2
100
AcDbEntity
  8
寸法
  6
ByBlock
100
AcDbTrace
 10
4036.424955425231
 20
335.5504403087866
 30
0.0
 11
4037.924955425231
 21
335.5504403087864
 31
0.0
 12
4037.174955425231
 22
340.0504403087864
 32
0.0
 13
4037.174955425231
 23
340.0504403087864
 33
0.0
  0
SOLID
  5
5DF4
330
2
100
AcDbEntity
  8
寸法
  6
ByBlock
100
AcDbTrace
 10
4036.42495542523
 20
314.5504403087866
 30
0.0
 11
4037.924955425231
 21
314.5504403087864
 31
0.0
 12
4037.174955425231
 22
310.0504403087864
 32
0.0
 13
4037.174955425231
 23
310.0504403087864
 33
0.0
  0
TEXT
  5
5DF5
330
2
100
AcDbEntity
  8
寸法
100
AcDbText
 10
4067.961026579254
 20
299.0504403087862
 30
0.0
 40
6.0
  1
43
 41
0.8
  7
STYLE1
100
AcDbText
  0
TEXT
  5
5DF6
330
2
100
AcDbEntity
  8
寸法
100
AcDbText
 10
4035.299955425231
 20
315.3361545945006
 30
0.0
 40
6.0
  1
φ30
 50
90.0
 41
0.8
  7
STYLE1
100
AcDbText
  0
LINE
  5
5DF7
330
2
100
AcDbEntity
  8
中心線
100
AcDbLine
 10
4661.98440693049
 20
91.60143992109715
 30
0.0
 11
4741.727205123863
 21
91.60143992109693
 31
0.0
  0
LINE
  5
5DF8
330
2
100
AcDbEntity
  8
中心線
100
AcDbLine
 10
4752.483506665897
 20
91.60143992109693
 30
0.0
 11
4771.156851519076
 21
91.60143992109715
 31
0.0
  0
TEXT
  5
5DF9
330
2
100
AcDbEntity
  8
TITLE
100
AcDbText
 10
4674.781278374352
 20
157.6036715655118
 30
0.0
 40
8.0
  1
スペーサー 2型　　S=1/3
 41
0.8
  7
STYLE1
100
AcDbText
  0
LINE
  5
5DFA
330
2
100
AcDbEntity
  8
TITLE
100
AcDbLine
 10
4674.373795828822
 20
155.9629018988362
 30
0.0
 11
4783.515377988433
 21
155.9629018988362
 31
0.0
  0
LINE
  5
5DFB
330
2
100
AcDbEntity
  8
中心線
100
AcDbLine
 10
4736.984795460367
 20
-92.16844958115598
 30
0.0
 11
4637.090757902919
 21
-92.16844958115598
 31
0.0
  0
LINE
  5
5DFC
330
2
100
AcDbEntity
  8
中心線
100
AcDbLine
 10
4686.64075790292
 20
-42.6184495811558
 30
0.0
 11
4686.64075790292
 21
-141.7184495811559
 31
0.0
  0
TEXT
  5
5DFD
330
2
100
AcDbEntity
  8
TITLE
  6
Continuous
100
AcDbText
 10
3734.543027778561
 20
-67.27772743487685
 30
0.0
 40
10.28571428571428
  1
アンカ－材料表
 41
0.9
  7
STYLE2
100
AcDbText
  0
LINE
  5
5DFE
330
2
100
AcDbEntity
  8
文字
  6
Continuous
 62
     4
100
AcDbLine
 10
3626.787930635704
 20
-104.9920251491626
 30
0.0
 11
3909.645073492846
 21
-104.9920251491628
 31
0.0
  0
LINE
  5
5DFF
330
2
100
AcDbEntity
  8
文字
  6
Continuous
 62
     4
100
AcDbLine
 10
3626.787930635704
 20
-91.27772743487662
 30
0.0
 11
3909.645073492846
 21
-91.27772743487708
 31
0.0
  0
LINE
  5
5E00
330
2
100
AcDbEntity
  8
文字
  6
Continuous
 62
     4
100
AcDbLine
 10
3626.787930635704
 20
-77.56344172059107
 30
0.0
 11
3909.645073492847
 21
-77.56344172059153
 31
0.0
  0
LINE
  5
5E01
330
2
100
AcDbEntity
  8
文字
  6
Continuous
 62
     4
100
AcDbLine
 10
3626.787930635703
 20
-228.4205965777337
 30
0.0
 11
3909.645073492846
 21
-228.4205965777342
 31
0.0
  0
LINE
  5
5E02
330
2
100
AcDbEntity
  8
文字
  6
Continuous
 62
     4
100
AcDbLine
 10
3626.787930635704
 20
-214.7063108634482
 30
0.0
 11
3909.645073492846
 21
-214.7063108634484
 31
0.0
  0
LINE
  5
5E03
330
2
100
AcDbEntity
  8
文字
  6
Continuous
 62
     4
100
AcDbLine
 10
3626.787930635704
 20
-200.9920251491626
 30
0.0
 11
3909.645073492846
 21
-200.9920251491626
 31
0.0
  0
LINE
  5
5E04
330
2
100
AcDbEntity
  8
文字
  6
Continuous
 62
     4
100
AcDbLine
 10
3626.787930635704
 20
-187.2777394348766
 30
0.0
 11
3909.645073492846
 21
-187.2777394348768
 31
0.0
  0
LINE
  5
5E05
330
2
100
AcDbEntity
  8
文字
  6
Continuous
 62
     4
100
AcDbLine
 10
3626.787930635703
 20
-173.5634537205908
 30
0.0
 11
3909.645073492846
 21
-173.5634537205913
 31
0.0
  0
LINE
  5
5E06
330
2
100
AcDbEntity
  8
文字
  6
Continuous
 62
     4
100
AcDbLine
 10
3626.787930635704
 20
-159.8491680063055
 30
0.0
 11
3909.645073492846
 21
-159.8491680063057
 31
0.0
  0
LINE
  5
5E07
330
2
100
AcDbEntity
  8
文字
  6
Continuous
 62
     4
100
AcDbLine
 10
3626.787930635704
 20
-146.1348822920195
 30
0.0
 11
3909.645073492846
 21
-146.1348822920199
 31
0.0
  0
LINE
  5
5E08
330
2
100
AcDbEntity
  8
文字
  6
Continuous
 62
     4
100
AcDbLine
 10
3626.787930635704
 20
-132.4205965777337
 30
0.0
 11
3909.645073492846
 21
-132.4205965777342
 31
0.0
  0
LINE
  5
5E09
330
2
100
AcDbEntity
  8
文字
  6
Continuous
 62
     4
100
AcDbLine
 10
3626.787930635704
 20
-118.7063108634482
 30
0.0
 11
3909.645073492847
 21
-118.7063108634486
 31
0.0
  0
TEXT
  5
5E0A
330
2
100
AcDbEntity
  8
文字
  6
Continuous
 62
     4
100
AcDbText
 10
3716.910382064275
 20
-128.9920251491624
 30
0.0
 40
6.0
  1
Ｅ６-１２
 41
0.8
  7
STYLE2
100
AcDbText
  0
TEXT
  5
5E0B
330
2
100
AcDbEntity
  8
文字
  6
Continuous
 62
     4
100
AcDbText
 10
3631.196096349989
 20
-128.9920251491621
 30
0.0
 40
6.0
  1
アンカ－ヘッド
 41
0.8
  7
STYLE2
100
AcDbText
  0
LINE
  5
5E0C
330
2
100
AcDbEntity
  8
文字
  6
Continuous
 62
     4
100
AcDbLine
 10
3763.930787778561
 20
-77.56345886344843
 30
0.0
 11
3763.93078777856
 21
-255.8491680063053
 31
0.0
  0
LINE
  5
5E0D
330
2
100
AcDbEntity
  8
文字
  6
Continuous
 62
     4
100
AcDbLine
 10
3712.502216349989
 20
-77.5634588634482
 30
0.0
 11
3712.502216349989
 21
-255.8491680063053
 31
0.0
  0
LINE
  5
5E0E
330
2
100
AcDbEntity
  8
文字
  6
Continuous
 62
     4
100
AcDbLine
 10
3626.787930635704
 20
-77.56345886344843
 30
0.0
 11
3626.787930635704
 21
-255.8491680063053
 31
0.0
  0
TEXT
  5
5E0F
330
2
100
AcDbEntity
  8
文字
  6
Continuous
 62
     4
100
AcDbText
 10
3631.196096349989
 20
-197.5634417205911
 30
0.0
 40
6.0
  1
ポリエチレンシース
 41
0.8
  7
STYLE2
100
AcDbText
  0
TEXT
  5
5E10
330
2
100
AcDbEntity
  8
文字
  6
Continuous
 62
     4
100
AcDbText
 10
3630.678039207132
 20
-156.4205845777337
 30
0.0
 40
6.0
  1
パイロットキャップ
 41
0.8
  7
STYLE2
100
AcDbText
  0
TEXT
  5
5E11
330
2
100
AcDbEntity
  8
文字
  6
Continuous
 62
     4
100
AcDbText
 10
3631.19609634999
 20
-170.1348702920197
 30
0.0
 40
6.0
  1
スペーサー
 41
0.8
  7
STYLE2
100
AcDbText
  0
TEXT
  5
5E12
330
2
100
AcDbEntity
  8
文字
  6
Continuous
 62
     4
100
AcDbText
 10
3631.196096349989
 20
-142.706298863448
 30
0.0
 40
6.0
  1
支　圧　板
 41
0.8
  7
STYLE2
100
AcDbText
  0
TEXT
  5
5E13
330
2
100
AcDbEntity
  8
文字
  6
Continuous
 62
     4
100
AcDbText
 10
3716.910382064275
 20
-142.7062988634482
 30
0.0
 40
6.0
  1
Ｅ６-１２
 41
0.8
  7
STYLE2
100
AcDbText
  0
TEXT
  5
5E14
330
2
100
AcDbEntity
  8
文字
  6
Continuous
 62
     4
100
AcDbText
 10
3768.338953492846
 20
-170.1348702920195
 30
0.0
 40
6.0
  1
φ70×10
 41
0.8
  7
STYLE2
100
AcDbText
  0
TEXT
  5
5E15
330
2
100
AcDbEntity
  8
文字
  6
Continuous
 62
     4
100
AcDbText
 10
3631.196096349989
 20
-115.2777274348769
 30
0.0
 40
6.0
  1
く　さ　び
 41
0.8
  7
STYLE2
100
AcDbText
  0
TEXT
  5
5E16
330
2
100
AcDbEntity
  8
文字
  6
Continuous
 62
     4
100
AcDbText
 10
3631.196096349989
 20
-101.5634297205909
 30
0.0
 40
6.0
  1
ＰＣ鋼より線
 41
0.8
  7
STYLE2
100
AcDbText
  0
TEXT
  5
5E17
330
2
100
AcDbEntity
  8
文字
  6
Continuous
 62
     4
100
AcDbText
 10
3653.481810635704
 20
-87.84915600630552
 30
0.0
 40
6.0
  1
名　　　称
 41
0.8
  7
STYLE2
100
AcDbText
  0
TEXT
  5
5E18
330
2
100
AcDbEntity
  8
文字
  6
Continuous
 62
     4
100
AcDbText
 10
3725.481810635704
 20
-87.8491560063053
 30
0.0
 40
6.0
  1
型　　式
 41
0.8
  7
STYLE2
100
AcDbText
  0
TEXT
  5
5E19
330
2
100
AcDbEntity
  8
文字
  6
Continuous
 62
     4
100
AcDbText
 10
3782.053239207132
 20
-87.8491560063053
 30
0.0
 40
6.0
  1
仕　　　様
 41
0.8
  7
STYLE2
100
AcDbText
  0
TEXT
  5
5E1A
330
2
100
AcDbEntity
  8
文字
  6
Continuous
 62
     4
100
AcDbText
 10
3768.338953492846
 20
-101.5634297205911
 30
0.0
 40
6.0
  1
φ15.2mm
 41
0.8
  7
STYLE2
100
AcDbText
  0
TEXT
  5
5E1B
330
2
100
AcDbEntity
  8
文字
  6
Continuous
 62
     4
100
AcDbText
 10
3768.338953492846
 20
-115.2777274348766
 30
0.0
 40
6.0
  1
φ15.2mm用
 41
0.8
  7
STYLE2
100
AcDbText
  0
TEXT
  5
5E1C
330
2
100
AcDbEntity
  8
文字
  6
Continuous
 62
     4
100
AcDbText
 10
3882.175359207132
 20
-128.4948942920196
 30
0.0
 40
6.0
  1
1
 41
0.8
  7
STYLE2
 72
     4
 11
3883.93078777856
 21
-125.563465720591
 31
0.0
100
AcDbText
  0
TEXT
  5
5E1D
330
2
100
AcDbEntity
  8
文字
  6
Continuous
 62
     4
100
AcDbText
 10
3842.910382064275
 20
-128.9920251491624
 30
0.0
 40
6.0
  1
個
 41
0.8
  7
STYLE2
100
AcDbText
  0
LINE
  5
5E1E
330
2
100
AcDbEntity
  8
文字
  6
Continuous
 62
     4
100
AcDbLine
 10
3909.645073492846
 20
-77.56345886344843
 30
0.0
 11
3909.645073492846
 21
-255.8491680063057
 31
0.0
  0
LINE
  5
5E1F
330
2
100
AcDbEntity
  8
文字
  6
Continuous
 62
     4
100
AcDbLine
 10
3832.502216349989
 20
-77.56345886344843
 30
0.0
 11
3832.502216349989
 21
-255.8491680063057
 31
0.0
  0
LINE
  5
5E20
330
2
100
AcDbEntity
  8
文字
  6
Continuous
 62
     4
100
AcDbLine
 10
3858.216502064275
 20
-77.5634588634482
 30
0.0
 11
3858.216502064275
 21
-255.8491680063055
 31
0.0
  0
TEXT
  5
5E21
330
2
100
AcDbEntity
  8
文字
  6
Continuous
 62
     4
100
AcDbText
 10
3842.910382064274
 20
-197.5634417205911
 30
0.0
 40
6.0
  1
ｍ
 41
0.8
  7
STYLE2
100
AcDbText
  0
TEXT
  5
5E22
330
2
100
AcDbEntity
  8
文字
  6
Continuous
 62
     4
100
AcDbText
 10
3842.910382064275
 20
-170.1348702920197
 30
0.0
 40
6.0
  1
個
 41
0.8
  7
STYLE2
100
AcDbText
  0
TEXT
  5
5E23
330
2
100
AcDbEntity
  8
文字
  6
Continuous
 62
     4
100
AcDbText
 10
3842.910382064275
 20
-142.706298863448
 30
0.0
 40
6.0
  1
枚
 41
0.8
  7
STYLE2
100
AcDbText
  0
TEXT
  5
5E24
330
2
100
AcDbEntity
  8
文字
  6
Continuous
 62
     4
100
AcDbText
 10
3882.175359207132
 20
-142.2091680063054
 30
0.0
 40
6.0
  1
1
 41
0.8
  7
STYLE2
 72
     4
 11
3883.93078777856
 21
-139.2777394348768
 31
0.0
100
AcDbText
  0
TEXT
  5
5E25
330
2
100
AcDbEntity
  8
文字
  6
Continuous
 62
     4
100
AcDbText
 10
3882.175359207132
 20
-155.9234537205912
 30
0.0
 40
6.0
  1
1
 41
0.8
  7
STYLE2
 72
     4
 11
3883.930787778561
 21
-152.9920251491626
 31
0.0
100
AcDbText
  0
TEXT
  5
5E26
330
2
100
AcDbEntity
  8
文字
  6
Continuous
 62
     4
100
AcDbText
 10
3871.19609634999
 20
-87.84915600630552
 30
0.0
 40
6.0
  1
数　　量
 41
0.8
  7
STYLE2
100
AcDbText
  0
TEXT
  5
5E27
330
2
100
AcDbEntity
  8
文字
  6
Continuous
 62
     4
100
AcDbText
 10
3839.481810635703
 20
-87.8491560063053
 30
0.0
 40
6.0
  1
単位
 41
0.8
  7
STYLE2
100
AcDbText
  0
TEXT
  5
5E28
330
2
100
AcDbEntity
  8
文字
  6
Continuous
 62
     4
100
AcDbText
 10
3842.910382064275
 20
-115.2777274348766
 30
0.0
 40
6.0
  1
組
 41
0.8
  7
STYLE2
100
AcDbText
  0
TEXT
  5
5E29
330
2
100
AcDbEntity
  8
文字
  6
Continuous
 62
     4
100
AcDbText
 10
3839.481810635703
 20
-101.5634297205909
 30
0.0
 40
6.0
  1
ｋｇ
 41
0.8
  7
STYLE2
100
AcDbText
  0
TEXT
  5
5E2A
330
2
100
AcDbEntity
  8
文字
  6
Continuous
 62
     4
100
AcDbText
 10
3880.419930635704
 20
-114.7805965777343
 30
0.0
 40
6.0
  1
10
 41
0.8
  7
STYLE2
 72
     4
 11
3883.930787778561
 21
-111.8491680063057
 31
0.0
100
AcDbText
  0
LINE
  5
5E2B
330
2
100
AcDbEntity
  8
文字
  6
Continuous
 62
     4
100
AcDbLine
 10
3626.787930635704
 20
-255.8491680063053
 30
0.0
 11
3909.645073492846
 21
-255.8491680063057
 31
0.0
  0
LINE
  5
5E2C
330
2
100
AcDbEntity
  8
文字
  6
Continuous
 62
     4
100
AcDbLine
 10
3626.787930635704
 20
-242.1348822920195
 30
0.0
 11
3909.645073492846
 21
-242.1348822920197
 31
0.0
  0
TEXT
  5
5E2D
330
2
100
AcDbEntity
  8
文字
  6
Continuous
 62
     4
100
AcDbText
 10
3630.678039207132
 20
-238.7062988634482
 30
0.0
 40
6.0
  1
鋼 製 台 座
 41
0.8
  7
STYLE2
100
AcDbText
  0
TEXT
  5
5E2E
330
2
100
AcDbEntity
  8
文字
  6
Continuous
 62
     4
100
AcDbText
 10
3842.910382064274
 20
-238.7062988634484
 30
0.0
 40
6.0
  1
個
 41
0.8
  7
STYLE2
100
AcDbText
  0
TEXT
  5
5E2F
330
2
100
AcDbEntity
  8
文字
  6
Continuous
 62
     4
100
AcDbText
 10
3882.175359207131
 20
-238.2091680063056
 30
0.0
 40
6.0
  1
1
 41
0.8
  7
STYLE2
 72
     4
 11
3883.93078777856
 21
-235.277739434877
 31
0.0
100
AcDbText
  0
TEXT
  5
5E30
330
2
100
AcDbEntity
  8
文字
  6
Continuous
 62
     4
100
AcDbText
 10
3631.196096349989
 20
-183.8491560063053
 30
0.0
 40
6.0
  1
スチールリング
 41
0.8
  7
STYLE2
100
AcDbText
  0
TEXT
  5
5E31
330
2
100
AcDbEntity
  8
文字
  6
Continuous
 62
     4
100
AcDbText
 10
3716.910382064275
 20
-183.8491680063053
 30
0.0
 40
6.0
  1
４型
 41
0.8
  7
STYLE2
100
AcDbText
  0
TEXT
  5
5E32
330
2
100
AcDbEntity
  8
文字
  6
Continuous
 62
     4
100
AcDbText
 10
3842.910382064275
 20
-183.8491560063055
 30
0.0
 40
6.0
  1
個
 41
0.8
  7
STYLE2
100
AcDbText
  0
TEXT
  5
5E33
330
2
100
AcDbEntity
  8
文字
  6
Continuous
 62
     4
100
AcDbText
 10
3716.910382064275
 20
-170.1348822920195
 30
0.0
 40
6.0
  1
２型
 41
0.8
  7
STYLE2
100
AcDbText
  0
TEXT
  5
5E34
330
2
100
AcDbEntity
  8
文字
  6
Continuous
 62
     4
100
AcDbText
 10
3716.910382064275
 20
-156.4205965777337
 30
0.0
 40
6.0
  1
４型
 41
0.8
  7
STYLE2
100
AcDbText
  0
LINE
  5
5E35
330
2
100
AcDbEntity
  8
構造
100
AcDbLine
 10
4356.258657326371
 20
7.061720660765786
 30
0.0
 11
4350.427948681057
 21
-3.03736295704789
 31
0.0
  0
LINE
  5
5E36
330
2
100
AcDbEntity
  8
構造
100
AcDbLine
 10
4267.611916898457
 20
57.12106231425105
 30
0.0
 11
4262.751916898458
 21
48.7032953894668
 31
0.0
  0
LINE
  5
5E37
330
2
100
AcDbEntity
  8
構造
100
AcDbLine
 10
4357.817503053182
 20
6.161720660765695
 30
0.0
 11
4351.986794407869
 21
-3.937362957047753
 31
0.0
  0
LINE
  5
5E38
330
2
100
AcDbEntity
  8
構造
100
AcDbLine
 10
4266.053071171646
 20
58.02106231425068
 30
0.0
 11
4261.193071171646
 21
49.60329538946667
 31
0.0
  0
LINE
  5
5E39
330
2
100
AcDbEntity
  8
構造
100
AcDbLine
 10
4356.518606895535
 20
3.911966521966406
 30
0.0
 11
4378.551606121857
 21
-9.748602977850624
 31
0.0
  0
LINE
  5
5E3A
330
2
100
AcDbEntity
  8
構造
100
AcDbLine
 10
4353.285690565515
 20
-1.687608818247782
 30
0.0
 11
4373.510668315826
 21
-12.53254695274472
 31
0.0
  0
LINE
  5
5E3B
330
2
100
AcDbEntity
  8
構造
100
AcDbLine
 10
4479.954475750834
 20
-65.10657238995782
 30
0.0
 11
4474.795856308798
 21
-74.04156336047504
 31
0.0
  0
LINE
  5
5E3C
330
2
100
AcDbEntity
  8
構造
100
AcDbLine
 10
4404.19822742289
 20
-20.72024348475838
 30
0.0
 11
4398.45762044637
 21
-30.66326643437583
 31
0.0
  0
LINE
  5
5E3D
330
2
100
AcDbEntity
  8
構造
100
AcDbLine
 10
4481.215473904089
 20
-65.92245952026838
 30
0.0
 11
4476.133646807099
 21
-74.72444224753485
 31
0.0
  0
LINE
  5
5E3E
330
2
100
AcDbEntity
  8
構造
100
AcDbLine
 10
4402.870213364422
 20
-20.02043130719107
 30
0.0
 11
4397.187558293484
 21
-29.86307861194359
 31
0.0
  0
LINE
  5
5E3F
330
2
100
AcDbEntity
  8
構造
100
AcDbLine
 10
4402.870213364424
 20
-20.02043130719107
 30
0.0
 11
4382.334156156419
 21
-8.16393315005871
 31
0.0
  0
LINE
  5
5E40
330
2
100
AcDbEntity
  8
構造
100
AcDbLine
 10
4398.45762044637
 20
-30.66326643437583
 30
0.0
 11
4376.62252513269
 21
-18.05676827724142
 31
0.0
  0
LINE
  5
5E41
330
2
100
AcDbEntity
  8
構造
100
AcDbLine
 10
4402.927279954611
 20
-22.92158907357179
 30
0.0
 11
4440.99701629736
 21
-42.98287149717498
 31
0.0
  0
LINE
  5
5E42
330
2
100
AcDbEntity
  8
構造
100
AcDbLine
 10
4399.728567914652
 20
-28.46192084556378
 30
0.0
 11
4436.137016297362
 21
-51.40063842195991
 31
0.0
  0
LINE
  5
5E43
330
2
100
AcDbEntity
  8
構造
100
AcDbLine
 10
4398.428582340694
 20
-27.7135619087635
 30
0.0
 11
4377.010286286213
 21
-15.3477029161254
 31
0.0
  0
LINE
  5
5E44
330
2
100
AcDbEntity
  8
構造
100
AcDbLine
 10
4401.600213364423
 20
-22.22013583280386
 30
0.0
 11
4381.978361768777
 21
-10.89145453206083
 31
0.0
  0
LINE
  5
5E45
330
2
100
AcDbEntity
  8
構造
100
AcDbLine
 10
4479.943569218593
 20
-68.12546305793376
 30
0.0
 11
4498.510239576548
 21
-80.12011543816061
 31
0.0
  0
LINE
  5
5E46
330
2
100
AcDbEntity
  8
構造
100
AcDbLine
 10
4476.058773773006
 20
-71.85412614670031
 30
0.0
 11
4437.695862024173
 21
-52.30063842196023
 31
0.0
  0
LINE
  5
5E47
330
2
100
AcDbEntity
  8
構造
100
AcDbLine
 10
4357.817503053182
 20
6.161720660765695
 30
0.0
 11
4378.944081328469
 21
-6.035714993526653
 31
0.0
  0
LINE
  5
5E48
330
2
100
AcDbEntity
  8
構造
100
AcDbLine
 10
4350.427948681057
 20
-3.03736295704789
 30
0.0
 11
4351.986794407869
 21
-3.937362957047753
 31
0.0
  0
LINE
  5
5E49
330
2
100
AcDbEntity
  8
構造
100
AcDbLine
 10
4351.986794407869
 20
-3.937362957047753
 30
0.0
 11
4373.113372683156
 21
-16.13479861134215
 31
0.0
  0
LEADER
  5
5E4A
330
2
100
AcDbEntity
  8
文字
100
AcDbLeader
  3
STANDARD-15
 74
     0
 76
     2
 10
3774.096121386155
 20
352.1434371310738
 30
0.0
 10
3749.957367895059
 20
406.4093901904246
 30
0.0
211
-1.0
221
6.106226635438361E-16
231
0.0
1001
ACAD
1000
DSTYLE
1002
{
1070
   288
1070
     0
1070
   144
1040
1.0
1002
}
  0
LINE
  5
5E4B
330
2
100
AcDbEntity
  8
文字
100
AcDbLine
 10
3749.957367895059
 20
406.4093901904246
 30
0.0
 11
3703.073919351667
 21
406.4093901904248
 31
0.0
  0
LEADER
  5
5E4C
330
2
100
AcDbEntity
  8
文字
100
AcDbLeader
  3
STANDARD-15
 74
     0
 76
     2
 10
3764.103713471785
 20
344.3779327593845
 30
0.0
 10
3744.207407477141
 20
388.6011451449947
 30
0.0
211
-1.0
221
6.106226635438361E-16
231
0.0
1001
ACAD
1000
DSTYLE
1002
{
1070
   288
1070
     0
1070
   144
1040
1.0
1002
}
  0
LINE
  5
5E4D
330
2
100
AcDbEntity
  8
文字
100
AcDbLine
 10
3744.207407477141
 20
388.6011451449947
 30
0.0
 11
3697.323958933751
 21
388.6011451449949
 31
0.0
  0
TEXT
  5
5E4E
330
2
100
AcDbEntity
  8
文字
100
AcDbText
 10
3706.917254320666
 20
409.393747957808
 30
0.0
 40
6.0
  1
支圧板
 41
0.8
  7
STYLE1
100
AcDbText
  0
TEXT
  5
5E4F
330
2
100
AcDbEntity
  8
文字
100
AcDbText
 10
3698.946759631137
 20
391.5855049369677
 30
0.0
 40
6.0
  1
アンカーヘッド
 41
0.8
  7
STYLE1
100
AcDbText
  0
SOLID
  5
5E50
330
2
100
AcDbEntity
  8
文字
100
AcDbTrace
 10
4232.482555837178
 20
85.12478654219672
 30
0.0
 11
4228.027567742967
 21
84.14214668932732
 31
0.0
 12
4231.923051663587
 22
86.51653187800139
 32
0.0
 13
4231.923051663587
 23
86.51653187800139
 33
0.0
  0
LINE
  5
5E51
330
2
100
AcDbEntity
  8
文字
100
AcDbLine
 10
4228.027567742967
 20
84.14214668932732
 30
0.0
 11
4272.551158244387
 21
102.4290839925736
 31
0.0
  0
LINE
  5
5E52
330
2
100
AcDbEntity
  8
文字
100
AcDbLine
 10
4272.551158244387
 20
102.4290839925736
 30
0.0
 11
4310.545470389516
 21
80.42643330198439
 31
0.0
  0
SOLID
  5
5E53
330
2
100
AcDbEntity
  8
文字
100
AcDbTrace
 10
4155.899161454758
 20
124.9862006195033
 30
0.0
 11
4151.444173360548
 21
124.0035607666337
 31
0.0
 12
4155.339657281167
 22
126.3779459553082
 32
0.0
 13
4155.339657281167
 23
126.3779459553082
 33
0.0
  0
LINE
  5
5E54
330
2
100
AcDbEntity
  8
文字
100
AcDbLine
 10
4151.444173360548
 20
124.0035607666337
 30
0.0
 11
4200.220969575762
 21
144.0373946105688
 31
0.0
  0
LINE
  5
5E55
330
2
100
AcDbEntity
  8
文字
100
AcDbLine
 10
4200.220969575762
 20
144.0373946105688
 30
0.0
 11
4254.555351386218
 21
112.6674246460511
 31
0.0
  0
SOLID
  5
5E56
330
2
100
AcDbEntity
  8
文字
100
AcDbTrace
 10
4025.137582015278
 20
200.7941134826679
 30
0.0
 11
4020.682593921067
 21
199.8114736297985
 31
0.0
 12
4024.578077841687
 22
202.1858588184725
 32
0.0
 13
4024.578077841687
 23
202.1858588184725
 33
0.0
  0
LINE
  5
5E57
330
2
100
AcDbEntity
  8
文字
100
AcDbLine
 10
4019.784076472586
 20
199.442430341483
 30
0.0
 11
4069.459390136283
 21
219.8453074737331
 31
0.0
  0
LINE
  5
5E58
330
2
100
AcDbEntity
  8
文字
100
AcDbLine
 10
4069.459390136283
 20
219.8453074737331
 30
0.0
 11
4123.094370883056
 21
189.2489752282268
 31
0.0
  0
TEXT
  5
5E59
330
2
100
AcDbEntity
  8
TITLE
100
AcDbText
 10
4027.453181933471
 20
431.8117275758287
 30
0.0
 40
7.0
  1
E6
 41
0.8
  7
STYLE1
 72
     4
 11
4031.549181933471
 21
435.2317275758287
 31
0.0
100
AcDbText
  0
TEXT
  5
5E5A
330
2
100
AcDbEntity
  8
TITLE
100
AcDbText
 10
4309.317783320444
 20
431.2223472234896
 30
0.0
 40
7.0
  1
E6-12
 41
0.8
  7
STYLE1
 72
     4
 11
4319.557783320443
 21
434.6423472234897
 31
0.0
100
AcDbText
  0
TEXT
  5
5E5B
330
2
100
AcDbEntity
  8
TITLE
100
AcDbText
 10
4639.885291763016
 20
451.4908244592603
 30
0.0
 40
7.0
  1
E6-12
 41
0.8
  7
STYLE1
 72
     4
 11
4650.125291763015
 21
454.9108244592603
 31
0.0
100
AcDbText
  0
TEXT
  5
5E5C
330
2
100
AcDbEntity
  8
TITLE
100
AcDbText
 10
4475.136200559053
 20
146.2978834205966
 30
0.0
 40
7.0
  1
φ72.7/64.7×200
 41
0.8
  7
STYLE1
 72
     4
 11
4507.904200559053
 21
149.6378834205966
 31
0.0
100
AcDbText
  0
TEXT
  5
5E5D
330
2
100
AcDbEntity
  8
TITLE
100
AcDbText
 10
4701.022162580205
 20
-28.12640412115914
 30
0.0
 40
7.0
  1
φ89.1×15
 41
0.8
  7
STYLE1
 72
     4
 11
4721.502162580205
 21
-25.34640412115914
 31
0.0
100
AcDbText
  0
TEXT
  5
5E5E
330
2
100
AcDbEntity
  8
TITLE
100
AcDbText
 10
4712.47264785789
 20
146.8578834205962
 30
0.0
 40
7.0
  1
φ70×10
 41
0.8
  7
STYLE1
 72
     4
 11
4728.85664785789
 21
149.6378834205962
 31
0.0
100
AcDbText
  0
LINE
  5
5E5F
330
2
100
AcDbEntity
  8
寸法
  6
ByBlock
100
AcDbLine
 10
4551.663293810401
 20
205.4514754849927
 30
0.0
 11
4551.663293810401
 21
190.3824061351718
 31
0.0
  0
LINE
  5
5E60
330
2
100
AcDbEntity
  8
寸法
  6
ByBlock
100
AcDbLine
 10
4789.163293810401
 20
205.4514754849927
 30
0.0
 11
4789.163293810401
 21
190.3824061351715
 31
0.0
  0
LINE
  5
5E61
330
2
100
AcDbEntity
  8
寸法
  6
ByBlock
100
AcDbLine
 10
4556.163293810401
 20
194.1324061351718
 30
0.0
 11
4784.663293810401
 21
194.1324061351713
 31
0.0
  0
SOLID
  5
5E62
330
2
100
AcDbEntity
  8
寸法
  6
ByBlock
100
AcDbTrace
 10
4556.163293810401
 20
194.8824061351715
 30
0.0
 11
4556.163293810401
 21
193.3824061351715
 31
0.0
 12
4551.663293810401
 22
194.132406135172
 32
0.0
 13
4551.663293810401
 23
194.132406135172
 33
0.0
  0
SOLID
  5
5E63
330
2
100
AcDbEntity
  8
寸法
  6
ByBlock
100
AcDbTrace
 10
4784.663293810401
 20
194.8824061351715
 30
0.0
 11
4784.663293810401
 21
193.3824061351715
 31
0.0
 12
4789.163293810401
 22
194.1324061351715
 32
0.0
 13
4789.163293810401
 23
194.1324061351715
 33
0.0
  0
LINE
  5
5E64
330
2
100
AcDbEntity
  8
寸法
  6
ByBlock
100
AcDbLine
 10
4791.038293810402
 20
444.8264754849924
 30
0.0
 11
4805.913293810402
 21
444.8264754849927
 31
0.0
  0
LINE
  5
5E65
330
2
100
AcDbEntity
  8
寸法
  6
ByBlock
100
AcDbLine
 10
4791.038293810402
 20
207.3264754849922
 30
0.0
 11
4805.913293810401
 21
207.3264754849922
 31
0.0
  0
LINE
  5
5E66
330
2
100
AcDbEntity
  8
寸法
  6
ByBlock
100
AcDbLine
 10
4802.163293810402
 20
440.3264754849924
 30
0.0
 11
4802.163293810402
 21
211.8264754849924
 31
0.0
  0
SOLID
  5
5E67
330
2
100
AcDbEntity
  8
寸法
  6
ByBlock
100
AcDbTrace
 10
4801.413293810402
 20
440.3264754849924
 30
0.0
 11
4802.913293810402
 21
440.3264754849924
 31
0.0
 12
4802.163293810402
 22
444.8264754849927
 32
0.0
 13
4802.163293810402
 23
444.8264754849927
 33
0.0
  0
SOLID
  5
5E68
330
2
100
AcDbEntity
  8
寸法
  6
ByBlock
100
AcDbTrace
 10
4801.413293810402
 20
211.8264754849924
 30
0.0
 11
4802.913293810402
 21
211.8264754849924
 31
0.0
 12
4802.163293810401
 22
207.3264754849924
 32
0.0
 13
4802.163293810401
 23
207.3264754849924
 33
0.0
  0
LINE
  5
5E69
330
2
100
AcDbEntity
  8
寸法
  6
ByBlock
100
AcDbLine
 10
4492.320822749869
 20
205.4514754849929
 30
0.0
 11
4492.320822749869
 21
190.5764754849929
 31
0.0
  0
LINE
  5
5E6A
330
2
100
AcDbEntity
  8
寸法
  6
ByBlock
100
AcDbLine
 10
4537.320822749869
 20
205.4514754849929
 30
0.0
 11
4537.320822749869
 21
190.5764754849927
 31
0.0
  0
LINE
  5
5E6B
330
2
100
AcDbEntity
  8
寸法
  6
ByBlock
100
AcDbLine
 10
4496.820822749869
 20
194.3264754849927
 30
0.0
 11
4532.820822749869
 21
194.3264754849929
 31
0.0
  0
SOLID
  5
5E6C
330
2
100
AcDbEntity
  8
寸法
  6
ByBlock
100
AcDbTrace
 10
4496.82082274987
 20
195.0764754849929
 30
0.0
 11
4496.820822749869
 21
193.5764754849929
 31
0.0
 12
4492.320822749869
 22
194.3264754849929
 32
0.0
 13
4492.320822749869
 23
194.3264754849929
 33
0.0
  0
SOLID
  5
5E6D
330
2
100
AcDbEntity
  8
寸法
  6
ByBlock
100
AcDbTrace
 10
4532.820822749869
 20
195.0764754849929
 30
0.0
 11
4532.820822749869
 21
193.5764754849929
 31
0.0
 12
4537.320822749869
 22
194.3264754849927
 32
0.0
 13
4537.320822749869
 23
194.3264754849927
 33
0.0
  0
LINE
  5
5E6E
330
2
100
AcDbEntity
  8
寸法
  6
ByBlock
100
AcDbLine
 10
4490.445822749869
 20
266.5764754849927
 30
46.5067028905314
 11
4475.570822749869
 21
266.5764754849927
 31
0.0
  0
LINE
  5
5E6F
330
2
100
AcDbEntity
  8
寸法
  6
ByBlock
100
AcDbLine
 10
4490.445822749869
 20
385.5764754849927
 30
0.0
 11
4475.570822749869
 21
385.5764754849927
 31
-46.5067028905314
  0
LINE
  5
5E70
330
2
100
AcDbEntity
  8
寸法
  6
ByBlock
100
AcDbLine
 10
4479.320822749869
 20
271.0764754849924
 30
0.0
 11
4479.320822749869
 21
381.0764754849929
 31
-46.5067028905314
  0
SOLID
  5
5E71
330
2
100
AcDbEntity
  8
寸法
  6
ByBlock
100
AcDbTrace
 10
4478.570822749869
 20
271.0764754849924
 30
0.0
 11
4480.070822749869
 21
271.0764754849924
 31
0.0
 12
4479.320822749869
 22
266.5764754849927
 32
0.0
 13
4479.320822749869
 23
266.5764754849927
 33
0.0
  0
SOLID
  5
5E72
330
2
100
AcDbEntity
  8
寸法
  6
ByBlock
100
AcDbTrace
 10
4478.570822749869
 20
381.0764754849929
 30
-46.5067028905314
 11
4480.070822749869
 21
381.0764754849927
 31
-46.5067028905314
 12
4479.320822749869
 22
385.5764754849924
 32
-46.5067028905314
 13
4479.320822749869
 23
385.5764754849924
 33
-46.5067028905314
  0
TEXT
  5
5E73
330
2
100
AcDbEntity
  8
寸法
100
AcDbText
 10
4477.445822749869
 20
315.7907611992782
 30
-46.5067028905314
 40
6.0
  1
φ119
 50
90.0
 41
0.8
  7
STYLE1
100
AcDbText
  0
TEXT
  5
5E74
330
2
100
AcDbEntity
  8
寸法
100
AcDbText
 10
4509.181112158458
 20
196.2014754849929
 30
0.0
 40
6.0
  1
45
 41
0.8
  7
STYLE1
100
AcDbText
  0
TEXT
  5
5E75
330
2
100
AcDbEntity
  8
寸法
100
AcDbText
 10
4662.699008096115
 20
196.0074061351713
 30
0.0
 40
6.0
  1
300
 41
0.8
  7
STYLE1
100
AcDbText
  0
TEXT
  5
5E76
330
2
100
AcDbEntity
  8
寸法
100
AcDbText
 10
4800.288293810401
 20
318.3621897707071
 30
0.0
 40
6.0
  1
300
 50
90.0
 41
0.8
  7
STYLE1
100
AcDbText
  0
LINE
  5
5E77
330
2
100
AcDbEntity
  8
寸法
  6
ByBlock
100
AcDbLine
 10
4404.861463934551
 20
109.3508557694192
 30
0.0
 11
4404.861463934551
 21
126.100855769419
 31
0.0
  0
LINE
  5
5E78
330
2
100
AcDbEntity
  8
寸法
  6
ByBlock
100
AcDbLine
 10
4604.861463934551
 20
89.75085576941888
 30
0.0
 11
4604.861463934551
 21
126.100855769419
 31
0.0
  0
LINE
  5
5E79
330
2
100
AcDbEntity
  8
寸法
  6
ByBlock
100
AcDbLine
 10
4409.361463934551
 20
122.350855769419
 30
0.0
 11
4600.361463934551
 21
122.350855769419
 31
0.0
  0
SOLID
  5
5E7A
330
2
100
AcDbEntity
  8
寸法
  6
ByBlock
100
AcDbTrace
 10
4409.361463934551
 20
123.100855769419
 30
0.0
 11
4409.361463934551
 21
121.6008557694188
 31
0.0
 12
4404.861463934551
 22
122.350855769419
 32
0.0
 13
4404.861463934551
 23
122.350855769419
 33
0.0
  0
SOLID
  5
5E7B
330
2
100
AcDbEntity
  8
寸法
  6
ByBlock
100
AcDbTrace
 10
4600.361463934551
 20
123.100855769419
 30
0.0
 11
4600.361463934551
 21
121.6008557694188
 31
0.0
 12
4604.861463934551
 22
122.350855769419
 32
0.0
 13
4604.861463934551
 23
122.350855769419
 33
0.0
  0
LINE
  5
5E7C
330
2
100
AcDbEntity
  8
寸法
  6
ByBlock
100
AcDbLine
 10
4402.986463934551
 20
105.5508557694191
 30
0.0
 11
4388.111463934551
 21
105.5508557694188
 31
0.0
  0
LINE
  5
5E7D
330
2
100
AcDbEntity
  8
寸法
  6
ByBlock
100
AcDbLine
 10
4402.986463934551
 20
40.85085576941901
 30
0.0
 11
4388.111463934551
 21
40.85085576941901
 31
0.0
  0
LINE
  5
5E7E
330
2
100
AcDbEntity
  8
寸法
  6
ByBlock
100
AcDbLine
 10
4391.861463934551
 20
101.0508557694188
 30
0.0
 11
4391.861463934551
 21
45.35085576941901
 31
0.0
  0
SOLID
  5
5E7F
330
2
100
AcDbEntity
  8
寸法
  6
ByBlock
100
AcDbTrace
 10
4391.111463934551
 20
101.0508557694191
 30
0.0
 11
4392.611463934551
 21
101.0508557694191
 31
0.0
 12
4391.861463934551
 22
105.5508557694188
 32
0.0
 13
4391.861463934551
 23
105.5508557694188
 33
0.0
  0
SOLID
  5
5E80
330
2
100
AcDbEntity
  8
寸法
  6
ByBlock
100
AcDbTrace
 10
4391.111463934551
 20
45.35085576941901
 30
0.0
 11
4392.611463934551
 21
45.35085576941924
 31
0.0
 12
4391.861463934551
 22
40.85085576941901
 32
0.0
 13
4391.861463934551
 23
40.85085576941901
 33
0.0
  0
LINE
  5
5E81
330
2
100
AcDbEntity
  8
寸法
  6
ByBlock
100
AcDbLine
 10
4402.986463934551
 20
109.3508557694192
 30
0.0
 11
4375.111463934551
 21
109.3508557694192
 31
0.0
  0
LINE
  5
5E82
330
2
100
AcDbEntity
  8
寸法
  6
ByBlock
100
AcDbLine
 10
4402.986463934551
 20
36.65085576941897
 30
0.0
 11
4375.111463934551
 21
36.65085576941919
 31
0.0
  0
LINE
  5
5E83
330
2
100
AcDbEntity
  8
寸法
  6
ByBlock
100
AcDbLine
 10
4378.861463934551
 20
104.850855769419
 30
0.0
 11
4378.861463934551
 21
41.15085576941942
 31
0.0
  0
SOLID
  5
5E84
330
2
100
AcDbEntity
  8
寸法
  6
ByBlock
100
AcDbTrace
 10
4378.111463934551
 20
104.850855769419
 30
0.0
 11
4379.611463934551
 21
104.850855769419
 31
0.0
 12
4378.861463934551
 22
109.3508557694192
 32
0.0
 13
4378.861463934551
 23
109.3508557694192
 33
0.0
  0
SOLID
  5
5E85
330
2
100
AcDbEntity
  8
寸法
  6
ByBlock
100
AcDbTrace
 10
4378.111463934551
 20
41.15085576941919
 30
0.0
 11
4379.611463934551
 21
41.15085576941919
 31
0.0
 12
4378.861463934551
 22
36.65085576941919
 32
0.0
 13
4378.861463934551
 23
36.65085576941919
 33
0.0
  0
TEXT
  5
5E86
330
2
100
AcDbEntity
  8
寸法
100
AcDbText
 10
4376.986463934551
 20
64.77421535591657
 30
0.0
 40
6.0
  1
φ72.7
 50
90.0
 41
0.8
  7
STYLE1
100
AcDbText
  0
TEXT
  5
5E87
330
2
100
AcDbEntity
  8
寸法
100
AcDbText
 10
4389.986463934551
 20
64.9170724987739
 30
0.0
 40
6.0
  1
φ64.7
 50
90.0
 41
0.8
  7
STYLE1
100
AcDbText
  0
TEXT
  5
5E88
330
2
100
AcDbEntity
  8
寸法
100
AcDbText
 10
4497.147178220265
 20
124.225855769419
 30
0.0
 40
6.0
  1
200
 41
0.8
  7
STYLE1
100
AcDbText
  0
LINE
  5
5E89
330
2
100
AcDbEntity
  8
寸法
  6
ByBlock
100
AcDbLine
 10
4667.661371786959
 20
90.25395187607774
 30
0.0
 11
4667.661371786959
 21
39.85143992109647
 31
46.5067028905314
  0
LINE
  5
5E8A
330
2
100
AcDbEntity
  8
寸法
  6
ByBlock
100
AcDbLine
 10
4737.653420796466
 20
90.25395187607796
 30
0.0
 11
4737.653420796467
 21
39.8514399210967
 31
46.5067028905314
  0
LINE
  5
5E8B
330
2
100
AcDbEntity
  8
寸法
  6
ByBlock
100
AcDbLine
 10
4672.161371786959
 20
43.6014399210967
 30
46.5067028905314
 11
4733.153420796467
 21
43.60143992109647
 31
46.5067028905314
  0
SOLID
  5
5E8C
330
2
100
AcDbEntity
  8
寸法
  6
ByBlock
100
AcDbTrace
 10
4672.161371786958
 20
44.35143992109647
 30
46.5067028905314
 11
4672.161371786959
 21
42.85143992109647
 31
46.5067028905314
 12
4667.661371786959
 22
43.60143992109647
 32
46.5067028905314
 13
4667.661371786959
 23
43.60143992109647
 33
46.5067028905314
  0
SOLID
  5
5E8D
330
2
100
AcDbEntity
  8
寸法
  6
ByBlock
100
AcDbTrace
 10
4733.153420796467
 20
44.35143992109624
 30
46.5067028905314
 11
4733.153420796467
 21
42.85143992109624
 31
46.5067028905314
 12
4737.653420796467
 22
43.6014399210967
 32
46.5067028905314
 13
4737.653420796467
 23
43.6014399210967
 33
46.5067028905314
  0
LINE
  5
5E8E
330
2
100
AcDbEntity
  8
寸法
  6
ByBlock
100
AcDbLine
 10
4758.190869132895
 20
54.72643992109693
 30
-46.5067028905314
 11
4758.190869132897
 21
39.8514399210967
 31
0.0
  0
LINE
  5
5E8F
330
2
100
AcDbEntity
  8
寸法
  6
ByBlock
100
AcDbLine
 10
4768.190869132896
 20
54.72643992109693
 30
-46.5067028905314
 11
4768.190869132897
 21
39.8514399210967
 31
0.0
  0
LINE
  5
5E90
330
2
100
AcDbEntity
  8
寸法
  6
ByBlock
100
AcDbLine
 10
4758.190869132897
 20
43.6014399210967
 30
0.0
 11
4768.190869132897
 21
43.6014399210967
 31
0.0
  0
LINE
  5
5E91
330
2
100
AcDbEntity
  8
寸法
  6
ByBlock
100
AcDbLine
 10
4770.065869132896
 20
74.10143992109693
 30
-46.5067028905314
 11
4784.940869132896
 21
74.10143992109693
 31
0.0
  0
LINE
  5
5E92
330
2
100
AcDbEntity
  8
寸法
  6
ByBlock
100
AcDbLine
 10
4770.065869132896
 20
109.1014399210969
 30
-46.5067028905314
 11
4784.940869132896
 21
109.1014399210969
 31
0.0
  0
LINE
  5
5E93
330
2
100
AcDbEntity
  8
寸法
  6
ByBlock
100
AcDbLine
 10
4781.190869132897
 20
78.6014399210967
 30
0.0
 11
4781.190869132897
 21
104.6014399210967
 31
0.0
  0
SOLID
  5
5E94
330
2
100
AcDbEntity
  8
寸法
  6
ByBlock
100
AcDbTrace
 10
4780.440869132897
 20
78.60143992109693
 30
0.0
 11
4781.940869132896
 21
78.60143992109693
 31
0.0
 12
4781.190869132897
 22
74.1014399210967
 32
0.0
 13
4781.190869132897
 23
74.1014399210967
 33
0.0
  0
SOLID
  5
5E95
330
2
100
AcDbEntity
  8
寸法
  6
ByBlock
100
AcDbTrace
 10
4780.440869132896
 20
104.6014399210969
 30
0.0
 11
4781.940869132896
 21
104.6014399210969
 31
0.0
 12
4781.190869132897
 22
109.1014399210967
 32
0.0
 13
4781.190869132897
 23
109.1014399210967
 33
0.0
  0
LINE
  5
5E96
330
2
100
AcDbEntity
  8
寸法
  6
ByBlock
100
AcDbLine
 10
4770.065869132896
 20
126.6014399210969
 30
-46.5067028905314
 11
4797.940869132897
 21
126.6014399210967
 31
0.0
  0
LINE
  5
5E97
330
2
100
AcDbEntity
  8
寸法
  6
ByBlock
100
AcDbLine
 10
4770.065869132897
 20
56.6014399210967
 30
-46.5067028905314
 11
4797.940869132897
 21
56.6014399210967
 31
0.0
  0
LINE
  5
5E98
330
2
100
AcDbEntity
  8
寸法
  6
ByBlock
100
AcDbLine
 10
4794.190869132896
 20
122.1014399210967
 30
0.0
 11
4794.190869132897
 21
61.10143992109647
 31
0.0
  0
SOLID
  5
5E99
330
2
100
AcDbEntity
  8
寸法
  6
ByBlock
100
AcDbTrace
 10
4793.440869132896
 20
122.1014399210967
 30
0.0
 11
4794.940869132896
 21
122.1014399210967
 31
0.0
 12
4794.190869132897
 22
126.6014399210969
 32
0.0
 13
4794.190869132897
 23
126.6014399210969
 33
0.0
  0
SOLID
  5
5E9A
330
2
100
AcDbEntity
  8
寸法
  6
ByBlock
100
AcDbTrace
 10
4793.440869132897
 20
61.1014399210967
 30
0.0
 11
4794.940869132897
 21
61.1014399210967
 31
0.0
 12
4794.190869132897
 22
56.6014399210967
 32
0.0
 13
4794.190869132897
 23
56.6014399210967
 33
0.0
  0
TEXT
  5
5E9B
330
2
100
AcDbEntity
  8
寸法
100
AcDbText
 10
4697.80025343457
 20
45.47643992109624
 30
46.5067028905314
 40
6.0
  1
70
 41
0.8
  7
STYLE1
100
AcDbText
  0
TEXT
  5
5E9C
330
2
100
AcDbEntity
  8
寸法
100
AcDbText
 10
4759.526212096249
 20
45.4764399210967
 30
0.0
 40
6.0
  1
10
 41
0.8
  7
STYLE1
100
AcDbText
  0
TEXT
  5
5E9D
330
2
100
AcDbEntity
  8
寸法
100
AcDbText
 10
4779.315869132896
 20
83.74429706395381
 30
0.0
 40
6.0
  1
φ35
 50
90.0
 41
0.8
  7
STYLE1
100
AcDbText
  0
TEXT
  5
5E9E
330
2
100
AcDbEntity
  8
寸法
100
AcDbText
 10
4792.315869132896
 20
83.74429706395404
 30
0.0
 40
6.0
  1
φ70
 50
90.0
 41
0.8
  7
STYLE1
100
AcDbText
  0
LINE
  5
5E9F
330
2
100
AcDbEntity
  8
寸法
  6
ByBlock
100
AcDbLine
 10
4752.716165173337
 20
-138.5934495811557
 30
0.0
 11
4752.716165173337
 21
-153.4684495811559
 31
0.0
  0
LINE
  5
5EA0
330
2
100
AcDbEntity
  8
寸法
  6
ByBlock
100
AcDbLine
 10
4767.716165173337
 20
-138.5934495811557
 30
0.0
 11
4767.716165173337
 21
-153.4684495811559
 31
0.0
  0
LINE
  5
5EA1
330
2
100
AcDbEntity
  8
寸法
  6
ByBlock
100
AcDbLine
 10
4752.716165173337
 20
-149.7184495811559
 30
0.0
 11
4767.716165173337
 21
-149.7184495811559
 31
0.0
  0
LINE
  5
5EA2
330
2
100
AcDbEntity
  8
寸法
  6
ByBlock
100
AcDbLine
 10
4769.591165173337
 20
-47.6184495811558
 30
0.0
 11
4797.466165173338
 21
-47.6184495811558
 31
0.0
  0
LINE
  5
5EA3
330
2
100
AcDbEntity
  8
寸法
  6
ByBlock
100
AcDbLine
 10
4769.591165173338
 20
-136.7184495811557
 30
0.0
 11
4797.466165173338
 21
-136.7184495811559
 31
0.0
  0
LINE
  5
5EA4
330
2
100
AcDbEntity
  8
寸法
  6
ByBlock
100
AcDbLine
 10
4793.716165173337
 20
-52.1184495811558
 30
0.0
 11
4793.716165173337
 21
-132.2184495811559
 31
0.0
  0
SOLID
  5
5EA5
330
2
100
AcDbEntity
  8
寸法
  6
ByBlock
100
AcDbTrace
 10
4792.966165173337
 20
-52.1184495811558
 30
0.0
 11
4794.466165173337
 21
-52.1184495811558
 31
0.0
 12
4793.716165173338
 22
-47.6184495811558
 32
0.0
 13
4793.716165173338
 23
-47.6184495811558
 33
0.0
  0
SOLID
  5
5EA6
330
2
100
AcDbEntity
  8
寸法
  6
ByBlock
100
AcDbTrace
 10
4792.966165173337
 20
-132.2184495811559
 30
0.0
 11
4794.466165173337
 21
-132.2184495811557
 31
0.0
 12
4793.716165173338
 22
-136.7184495811559
 32
0.0
 13
4793.716165173338
 23
-136.7184495811559
 33
0.0
  0
LINE
  5
5EA7
330
2
100
AcDbEntity
  8
寸法
  6
ByBlock
100
AcDbLine
 10
4769.591165173337
 20
-51.81844958115562
 30
0.0
 11
4784.466165173337
 21
-51.81844958115585
 31
0.0
  0
LINE
  5
5EA8
330
2
100
AcDbEntity
  8
寸法
  6
ByBlock
100
AcDbLine
 10
4769.591165173337
 20
-132.5184495811559
 30
0.0
 11
4784.466165173338
 21
-132.5184495811561
 31
0.0
  0
LINE
  5
5EA9
330
2
100
AcDbEntity
  8
寸法
  6
ByBlock
100
AcDbLine
 10
4780.716165173337
 20
-51.81844958115562
 30
0.0
 11
4780.716165173338
 21
-128.0184495811561
 31
0.0
  0
SOLID
  5
5EAA
330
2
100
AcDbEntity
  8
寸法
  6
ByBlock
100
AcDbTrace
 10
4779.966165173338
 20
-128.0184495811561
 30
0.0
 11
4781.466165173338
 21
-128.0184495811561
 31
0.0
 12
4780.716165173338
 22
-132.5184495811561
 32
0.0
 13
4780.716165173338
 23
-132.5184495811561
 33
0.0
  0
TEXT
  5
5EAB
330
2
100
AcDbEntity
  8
寸法
100
AcDbText
 10
4778.841165173338
 20
-104.1684495811558
 30
0.0
 40
6.0
  1
φ80.7
 50
90.0
 41
0.8
  7
STYLE1
100
AcDbText
  0
TEXT
  5
5EAC
330
2
100
AcDbEntity
  8
寸法
100
AcDbText
 10
4791.841165173337
 20
-104.3113067240131
 30
0.0
 40
6.0
  1
φ89.1
 50
90.0
 41
0.8
  7
STYLE1
100
AcDbText
  0
TEXT
  5
5EAD
330
2
100
AcDbEntity
  8
寸法
100
AcDbText
 10
4756.012807540667
 20
-147.8434495811559
 30
0.0
 40
6.0
  1
15
 41
0.8
  7
STYLE1
100
AcDbText
  0
SOLID
  5
5EAE
330
2
100
AcDbEntity
  8
寸法
  6
ByBlock
100
AcDbTrace
 10
4763.690869132897
 20
44.35143992109647
 30
0.0
 11
4763.690869132897
 21
42.85143992109647
 31
0.0
 12
4768.190869132897
 22
43.6014399210967
 32
0.0
 13
4768.190869132897
 23
43.6014399210967
 33
0.0
  0
SOLID
  5
5EAF
330
2
100
AcDbEntity
  8
寸法
  6
ByBlock
100
AcDbTrace
 10
4762.690869132897
 20
44.35143992109647
 30
0.0
 11
4762.690869132897
 21
42.85143992109647
 31
0.0
 12
4758.190869132897
 22
43.6014399210967
 32
0.0
 13
4758.190869132897
 23
43.6014399210967
 33
0.0
  0
LINE
  5
5EB0
330
2
100
AcDbEntity
  8
寸法
  6
ByBlock
100
AcDbLine
 10
4093.828274540184
 20
310.1754403087864
 30
0.0
 11
4093.828274540184
 21
293.4254403087862
 31
0.0
  0
LINE
  5
5EB1
330
2
100
AcDbEntity
  8
寸法
  6
ByBlock
100
AcDbLine
 10
4048.953274540183
 20
340.0504403087866
 30
0.0
 11
4033.424955425231
 21
340.0504403087864
 31
0.0
  0
LINE
  5
5EB2
330
2
100
AcDbEntity
  8
構造
100
AcDbLine
 10
4050.828274540184
 20
340.0504403087864
 30
0.0
 11
4092.288718200107
 21
334.2235549496891
 31
0.0
  0
LINE
  5
5EB3
330
2
100
AcDbEntity
  8
構造
  6
Continuous
100
AcDbLine
 10
4091.828274540184
 20
334.2832732360343
 30
0.0
 11
4092.218474540183
 21
334.244873236034
 31
0.0
  0
LINE
  5
5EB4
330
2
100
AcDbEntity
  8
構造
  6
Continuous
100
AcDbLine
 10
4092.218474540183
 20
334.244873236034
 30
0.0
 11
4092.593774540183
 21
334.1309732360344
 31
0.0
  0
LINE
  5
5EB5
330
2
100
AcDbEntity
  8
構造
  6
Continuous
100
AcDbLine
 10
4092.593774540183
 20
334.1309732360344
 30
0.0
 11
4092.939574540185
 21
333.9461732360339
 31
0.0
  0
LINE
  5
5EB6
330
2
100
AcDbEntity
  8
構造
  6
Continuous
100
AcDbLine
 10
4092.939574540185
 20
333.9461732360339
 30
0.0
 11
4093.242674540184
 21
333.6973732360341
 31
0.0
  0
LINE
  5
5EB7
330
2
100
AcDbEntity
  8
構造
  6
Continuous
100
AcDbLine
 10
4093.242674540184
 20
333.6973732360341
 30
0.0
 11
4093.491374540184
 21
333.394173236034
 31
0.0
  0
LINE
  5
5EB8
330
2
100
AcDbEntity
  8
構造
  6
Continuous
100
AcDbLine
 10
4093.491374540184
 20
333.394173236034
 30
0.0
 11
4093.676174540185
 21
333.048373236034
 31
0.0
  0
LINE
  5
5EB9
330
2
100
AcDbEntity
  8
構造
  6
Continuous
100
AcDbLine
 10
4093.676174540185
 20
333.048373236034
 30
0.0
 11
4093.789874540185
 21
332.673073236034
 31
0.0
  0
LINE
  5
5EBA
330
2
100
AcDbEntity
  8
構造
  6
Continuous
100
AcDbLine
 10
4093.789874540185
 20
332.673073236034
 30
0.0
 11
4093.828274540184
 21
332.2832732360341
 31
0.0
  0
LINE
  5
5EBB
330
2
100
AcDbEntity
  8
構造
  6
Continuous
100
AcDbLine
 10
4093.828274540183
 20
332.2832732360348
 30
0.0
 11
4093.828274540183
 21
317.5545577773153
 31
0.0
  0
LINE
  5
5EBC
330
2
100
AcDbEntity
  8
構造
  6
Continuous
100
AcDbLine
 10
4050.828274540184
 20
310.0504403087864
 30
0.0
 11
4050.438074540184
 21
310.0889403087863
 31
0.0
  0
LINE
  5
5EBD
330
2
100
AcDbEntity
  8
構造
  6
Continuous
100
AcDbLine
 10
4050.438074540184
 20
310.0889403087863
 30
0.0
 11
4050.062774540184
 21
310.2027403087861
 31
0.0
  0
LINE
  5
5EBE
330
2
100
AcDbEntity
  8
構造
  6
Continuous
100
AcDbLine
 10
4050.062774540184
 20
310.2027403087861
 30
0.0
 11
4049.716974540183
 21
310.3876403087863
 31
0.0
  0
LINE
  5
5EBF
330
2
100
AcDbEntity
  8
構造
  6
Continuous
100
AcDbLine
 10
4049.716974540183
 20
310.3876403087863
 30
0.0
 11
4049.413874540184
 21
310.6364403087864
 31
0.0
  0
LINE
  5
5EC0
330
2
100
AcDbEntity
  8
構造
  6
Continuous
100
AcDbLine
 10
4049.413874540184
 20
310.6364403087864
 30
0.0
 11
4049.165174540185
 21
310.939540308786
 31
0.0
  0
LINE
  5
5EC1
330
2
100
AcDbEntity
  8
構造
  6
Continuous
100
AcDbLine
 10
4049.165174540185
 20
310.939540308786
 30
0.0
 11
4048.980374540184
 21
311.2854403087863
 31
0.0
  0
LINE
  5
5EC2
330
2
100
AcDbEntity
  8
構造
  6
Continuous
100
AcDbLine
 10
4048.980374540184
 20
311.2854403087863
 30
0.0
 11
4048.866574540184
 21
311.6607403087862
 31
0.0
  0
LINE
  5
5EC3
330
2
100
AcDbEntity
  8
構造
  6
Continuous
100
AcDbLine
 10
4048.866574540184
 20
311.6607403087862
 30
0.0
 11
4048.828274540184
 21
312.0504403087864
 31
0.0
  0
LINE
  5
5EC4
330
2
100
AcDbEntity
  8
構造
  6
Continuous
100
AcDbLine
 10
4048.828274540184
 20
312.0504403087864
 30
0.0
 11
4048.828274540183
 21
338.0504403087864
 31
0.0
  0
LINE
  5
5EC5
330
2
100
AcDbEntity
  8
構造
  6
Continuous
100
AcDbLine
 10
4048.828274540183
 20
338.0504403087864
 30
0.0
 11
4048.866574540185
 21
338.4402403087863
 31
0.0
  0
LINE
  5
5EC6
330
2
100
AcDbEntity
  8
構造
  6
Continuous
100
AcDbLine
 10
4048.866574540185
 20
338.4402403087863
 30
0.0
 11
4048.980374540184
 21
338.8155403087865
 31
0.0
  0
LINE
  5
5EC7
330
2
100
AcDbEntity
  8
構造
  6
Continuous
100
AcDbLine
 10
4048.980374540184
 20
338.8155403087865
 30
0.0
 11
4049.165174540185
 21
339.1613403087863
 31
0.0
  0
LINE
  5
5EC8
330
2
100
AcDbEntity
  8
構造
  6
Continuous
100
AcDbLine
 10
4049.165174540185
 20
339.1613403087863
 30
0.0
 11
4049.413874540184
 21
339.4645403087866
 31
0.0
  0
LINE
  5
5EC9
330
2
100
AcDbEntity
  8
構造
  6
Continuous
100
AcDbLine
 10
4049.413874540184
 20
339.4645403087866
 30
0.0
 11
4049.716974540183
 21
339.713340308786
 31
0.0
  0
LINE
  5
5ECA
330
2
100
AcDbEntity
  8
構造
  6
Continuous
100
AcDbLine
 10
4049.716974540183
 20
339.713340308786
 30
0.0
 11
4050.062774540184
 21
339.8981403087864
 31
0.0
  0
LINE
  5
5ECB
330
2
100
AcDbEntity
  8
構造
  6
Continuous
100
AcDbLine
 10
4050.062774540184
 20
339.8981403087864
 30
0.0
 11
4050.438074540184
 21
340.0120403087863
 31
0.0
  0
LINE
  5
5ECC
330
2
100
AcDbEntity
  8
構造
  6
Continuous
100
AcDbLine
 10
4050.438074540184
 20
340.0120403087863
 30
0.0
 11
4050.828274540184
 21
340.0504403087864
 31
0.0
  0
LINE
  5
5ECD
330
2
100
AcDbEntity
  8
構造
  6
Continuous
100
AcDbLine
 10
4091.828274540184
 20
334.2588926630867
 30
0.0
 11
4091.828274540184
 21
334.2588926630867
 31
0.0
  0
LINE
  5
5ECE
330
2
100
AcDbEntity
  8
構造
  6
Continuous
100
AcDbLine
 10
4082.384674540183
 20
316.9691684122572
 30
0.0
 11
4084.562382897216
 21
314.7914600552244
 31
0.0
  0
LINE
  5
5ECF
330
2
100
AcDbEntity
  8
構造
  6
Continuous
100
AcDbLine
 10
4049.528274540185
 20
317.6691684122572
 30
0.0
 11
4089.928274540185
 21
317.669168412257
 31
0.0
  0
LINE
  5
5ED0
330
2
100
AcDbEntity
  8
構造
  6
Continuous
100
AcDbLine
 10
4048.828274540184
 20
316.969168412257
 30
0.0
 11
4093.65092636324
 21
316.969168412257
 31
0.0
  0
LINE
  5
5ED1
330
2
100
AcDbEntity
  8
構造
  6
Continuous
100
AcDbLine
 10
4077.828274540184
 20
314.3414684122572
 30
0.0
 11
4078.263529071545
 21
313.9062138808965
 31
0.0
  0
LINE
  5
5ED2
330
2
100
AcDbEntity
  8
構造
  6
Continuous
100
AcDbLine
 10
4077.828274540184
 20
316.1374684122572
 30
0.0
 11
4079.838220608537
 21
314.127522343904
 31
0.0
  0
LINE
  5
5ED3
330
2
100
AcDbEntity
  8
構造
  6
Continuous
100
AcDbLine
 10
4078.792674540185
 20
316.969168412257
 30
0.0
 11
4081.412909924496
 21
314.3488304947662
 31
0.0
  0
LINE
  5
5ED4
330
2
100
AcDbEntity
  8
構造
  6
Continuous
100
AcDbLine
 10
4080.588674540185
 20
316.9691684122572
 30
0.0
 11
4082.987691360224
 21
314.5701515922171
 31
0.0
  0
LINE
  5
5ED5
330
2
100
AcDbEntity
  8
構造
  6
Continuous
100
AcDbLine
 10
4077.828274540184
 20
316.969168412257
 30
0.0
 11
4077.828274540184
 21
313.8450428457511
 31
0.0
  0
LINE
  5
5ED6
330
2
100
AcDbEntity
  8
構造
  6
Continuous
100
AcDbLine
 10
4084.180774540185
 20
316.969168412257
 30
0.0
 11
4086.137162111911
 21
315.01278084053
 31
0.0
  0
LINE
  5
5ED7
330
2
100
AcDbEntity
  8
構造
  6
Continuous
100
AcDbLine
 10
4085.976774540184
 20
316.9691684122572
 30
0.0
 11
4087.711944232822
 21
315.2341020342772
 31
0.0
  0
LINE
  5
5ED8
330
2
100
AcDbEntity
  8
構造
  6
Continuous
100
AcDbLine
 10
4087.772874540185
 20
316.969168412257
 30
0.0
 11
4089.286632863599
 21
315.4554100888427
 31
0.0
  0
LINE
  5
5ED9
330
2
100
AcDbEntity
  8
構造
  6
Continuous
100
AcDbLine
 10
4089.568874540184
 20
316.9691684122572
 30
0.0
 11
4090.861324400591
 21
315.6767185518504
 31
0.0
  0
LINE
  5
5EDA
330
2
100
AcDbEntity
  8
構造
  6
Continuous
100
AcDbLine
 10
4091.364874540184
 20
316.969168412257
 30
0.0
 11
4092.378074540184
 21
315.9559684122573
 31
0.0
  0
LINE
  5
5EDB
330
2
100
AcDbEntity
  8
構造
  6
Continuous
100
AcDbLine
 10
4093.160974540185
 20
316.9419879544862
 30
0.0
 11
4093.437474540185
 21
316.6653879544856
 31
0.0
  0
LINE
  5
5EDC
330
2
100
AcDbEntity
  8
構造
  6
Continuous
100
AcDbLine
 10
4089.928274540185
 20
317.669168412257
 30
0.0
 11
4093.676174540185
 21
317.104068412257
 31
0.0
  0
LINE
  5
5EDD
330
2
100
AcDbEntity
  8
構造
100
AcDbLine
 10
4050.828274540184
 20
310.0504403087864
 30
0.0
 11
4092.288718200106
 21
315.8773256678833
 31
0.0
  0
LINE
  5
5EDE
330
2
100
AcDbEntity
  8
構造
  6
Continuous
100
AcDbLine
 10
4091.828274540183
 20
315.8176073815387
 30
0.0
 11
4092.218474540183
 21
315.8560073815386
 31
0.0
  0
LINE
  5
5EDF
330
2
100
AcDbEntity
  8
構造
  6
Continuous
100
AcDbLine
 10
4092.218474540183
 20
315.8560073815386
 30
0.0
 11
4092.593774540183
 21
315.9699073815384
 31
0.0
  0
LINE
  5
5EE0
330
2
100
AcDbEntity
  8
構造
  6
Continuous
100
AcDbLine
 10
4092.593774540183
 20
315.9699073815384
 30
0.0
 11
4092.939574540184
 21
316.1547073815386
 31
0.0
  0
LINE
  5
5EE1
330
2
100
AcDbEntity
  8
構造
  6
Continuous
100
AcDbLine
 10
4092.939574540184
 20
316.1547073815386
 30
0.0
 11
4093.242674540184
 21
316.4035073815385
 31
0.0
  0
LINE
  5
5EE2
330
2
100
AcDbEntity
  8
構造
  6
Continuous
100
AcDbLine
 10
4093.242674540184
 20
316.4035073815385
 30
0.0
 11
4093.491374540184
 21
316.7067073815385
 31
0.0
  0
LINE
  5
5EE3
330
2
100
AcDbEntity
  8
構造
  6
Continuous
100
AcDbLine
 10
4093.491374540184
 20
316.7067073815385
 30
0.0
 11
4093.676174540185
 21
317.0525073815386
 31
0.0
  0
LINE
  5
5EE4
330
2
100
AcDbEntity
  8
構造
  6
Continuous
100
AcDbLine
 10
4093.676174540185
 20
317.0525073815386
 30
0.0
 11
4093.789874540184
 21
317.4278073815385
 31
0.0
  0
LINE
  5
5EE5
330
2
100
AcDbEntity
  8
構造
  6
Continuous
100
AcDbLine
 10
4093.789874540184
 20
317.4278073815385
 30
0.0
 11
4093.828274540183
 21
317.8176073815384
 31
0.0
  0
LINE
  5
5EE6
330
2
100
AcDbEntity
  8
構造
  6
Continuous
100
AcDbLine
 10
3998.7141088534
 20
329.1099018472478
 30
0.0
 11
4003.906416545708
 21
329.1099018472478
 31
0.0
  0
LWPOLYLINE
  5
5EE7
330
2
100
AcDbEntity
  8
構造
  6
Continuous
100
AcDbPolyline
 90
       40
 70
     1
 43
0.0
 10
3990.752570391861
 20
339.8563633857098
 10
3993.289993468784
 20
339.4481326164789
 10
3995.719762699554
 20
338.6112480010941
 10
3997.970108853401
 20
337.3704018472479
 10
3999.974685776477
 20
335.7621710780172
 10
4001.673955007247
 20
333.834209539556
 10
4003.017608853401
 20
331.6438633857097
 10
4003.966185776477
 20
329.2554018472481
 10
4004.491070391863
 20
326.7430172318634
 10
3995.054685776478
 20
326.7430172318634
 10
3994.850224238015
 20
326.7430172318636
 10
3994.521839622631
 20
327.5068633857095
 10
3994.078762699554
 20
328.2117480010941
 10
3993.531955007246
 20
328.8394403087864
 10
3992.894685776476
 20
329.3750556934019
 10
3992.182301161093
 20
329.8056710780172
 10
3991.411762699554
 20
330.1209018472478
 10
3990.601762699555
 20
330.3130172318636
 10
3989.771801161093
 20
330.3776326164786
 10
3988.941839622632
 20
330.3130172318636
 10
3988.131839622631
 20
330.1207864626326
 10
3987.361301161093
 20
329.8056710780172
 10
3986.648801161092
 20
329.3750556934019
 10
3986.011531930323
 20
328.8394403087866
 10
3985.464724238016
 20
328.2117480010943
 10
3985.021647314938
 20
327.5068633857095
 10
3984.693262699554
 20
326.7430172318636
 10
3984.573378084169
 20
326.7430172318636
 10
3974.821762699554
 20
326.7430172318634
 10
3975.346531930324
 20
329.2551710780172
 10
3976.295108853401
 20
331.643632616479
 10
3977.638878084169
 20
333.8342095395556
 10
3979.338031930324
 20
335.7619403087865
 10
3981.342493468786
 20
337.3702864626327
 10
3983.593070391862
 20
338.6112480010943
 10
3986.0226088534
 20
339.4481326164789
 10
3988.560262699555
 20
339.8563633857095
 10
3988.560262699555
 20
338.1660941549403
 10
3990.752570391861
 20
338.1660941549403
 10
3990.752570391861
 20
339.8563633857098
  0
LINE
  5
5EE8
330
2
100
AcDbEntity
  8
構造
  6
Continuous
100
AcDbLine
 10
3980.367955007246
 20
329.2252864626328
 30
0.0
 11
3975.291031930324
 21
329.2252864626325
 31
0.0
  0
LWPOLYLINE
  5
5EE9
330
2
100
AcDbEntity
  8
構造
  6
Continuous
100
AcDbPolyline
 90
       39
 70
     1
 43
0.0
 10
3989.656416545708
 20
330.4368249241711
 10
3988.826455007247
 20
330.3722095395558
 10
3988.016455007247
 20
330.1799787703246
 10
3987.245916545708
 20
329.8648633857097
 10
3986.533416545708
 20
329.4342480010941
 10
3985.896147314939
 20
328.8986326164786
 10
3985.349339622631
 20
328.2709403087867
 10
3984.906262699554
 20
327.5660556934017
 10
3984.577878084171
 20
326.8022095395554
 10
3984.521801161093
 20
326.8022095395554
 10
3981.637185776478
 20
329.2252864626328
 10
3980.425762699555
 20
329.2252864626328
 10
3981.095801161092
 20
330.5073249241711
 10
3981.945147314939
 20
331.680440308786
 10
3982.955455007247
 20
332.7183249241712
 10
3984.10537808417
 20
333.5990556934021
 10
3985.370570391863
 20
334.3040556934018
 10
3986.724493468785
 20
334.818555693402
 10
3988.138647314939
 20
335.1315941549403
 10
3989.583262699555
 20
335.2367095395557
 10
3991.043339622632
 20
335.1292864626328
 10
3992.472031930323
 20
334.809555693402
 10
3993.838531930323
 20
334.2840941549405
 10
3995.113416545708
 20
333.5644403087865
 10
3996.269455007247
 20
332.6659403087867
 10
3997.281493468784
 20
331.6082095395557
 10
3998.127839622631
 20
330.4136326164787
 10
3998.789801161093
 20
329.109901847248
 10
3997.560262699554
 20
329.109901847248
 10
3994.812955007247
 20
326.8022095395559
 10
3994.734839622631
 20
326.8022095395559
 10
3994.406455007247
 20
327.5660556934019
 10
3993.963378084169
 20
328.2709403087867
 10
3993.416570391862
 20
328.8986326164786
 10
3992.779301161093
 20
329.4342480010941
 10
3992.066916545708
 20
329.8648633857099
 10
3991.29637808417
 20
330.1800941549404
 10
3990.486378084169
 20
330.3722095395556
 10
3989.656416545708
 20
330.4368249241711
  0
LWPOLYLINE
  5
5EEA
330
2
100
AcDbEntity
  8
構造
  6
Continuous
100
AcDbPolyline
 90
       37
 70
     1
 43
0.0
 10
3989.656416545708
 20
330.4368249241711
 10
3988.826455007247
 20
330.3722095395558
 10
3988.016455007247
 20
330.1799787703246
 10
3987.245916545708
 20
329.8648633857097
 10
3986.533416545708
 20
329.4342480010941
 10
3985.896147314939
 20
328.8986326164786
 10
3985.349339622631
 20
328.2709403087867
 10
3984.906262699554
 20
327.5660556934017
 10
3984.577878084171
 20
326.8022095395554
 10
3984.521801161093
 20
326.8022095395554
 10
3981.737455007247
 20
329.1410556934018
 10
3982.345762699554
 20
330.2081326164787
 10
3983.098185776477
 20
331.1809403087866
 10
3983.97937808417
 20
332.0389403087863
 10
3984.972031930323
 20
332.7652864626325
 10
3986.056416545708
 20
333.3454403087865
 10
3987.211416545707
 20
333.7683249241713
 10
3988.414070391862
 20
334.0252864626325
 10
3989.640955007247
 20
334.1115941549401
 10
3990.872224238016
 20
334.0247095395557
 10
3992.079031930324
 20
333.7659018472477
 10
3993.2376088534
 20
333.3401326164787
 10
3994.324993468785
 20
332.756055693402
 10
3995.319493468785
 20
332.0249787703251
 10
3996.201608853401
 20
331.1616710780172
 10
3996.953570391862
 20
330.1830941549404
 10
3997.560262699554
 20
329.109901847248
 10
3994.812955007247
 20
326.8022095395559
 10
3994.734839622631
 20
326.8022095395559
 10
3994.406455007247
 20
327.5660556934019
 10
3993.963378084169
 20
328.2709403087867
 10
3993.416570391862
 20
328.8986326164786
 10
3992.779301161093
 20
329.4342480010941
 10
3992.066916545708
 20
329.8648633857099
 10
3991.29637808417
 20
330.1800941549404
 10
3990.486378084169
 20
330.3722095395556
 10
3989.656416545708
 20
330.4368249241711
  0
LWPOLYLINE
  5
5EEB
330
2
100
AcDbEntity
  8
構造
  6
Continuous
100
AcDbPolyline
 90
       37
 70
     1
 43
0.0
 10
3989.656416545708
 20
330.4368249241711
 10
3988.826455007247
 20
330.3722095395558
 10
3988.016455007247
 20
330.1799787703246
 10
3987.245916545708
 20
329.8648633857097
 10
3986.533416545708
 20
329.4342480010941
 10
3985.896147314939
 20
328.8986326164786
 10
3985.349339622631
 20
328.2709403087867
 10
3984.906262699554
 20
327.5660556934017
 10
3984.577878084171
 20
326.8022095395554
 10
3984.521801161093
 20
326.8022095395554
 10
3983.494762699554
 20
327.6648249241712
 10
3983.918685776477
 20
328.5707095395558
 10
3984.474724238016
 20
329.4035556934018
 10
3985.149839622631
 20
330.1432864626327
 10
3985.928685776477
 20
330.7729403087865
 10
3986.793262699555
 20
331.2782095395557
 10
3987.724185776477
 20
331.6475556934017
 10
3988.699993468785
 20
331.8725556934021
 10
3989.698647314939
 20
331.9481326164789
 10
3990.691993468784
 20
331.8733633857096
 10
3991.662955007247
 20
331.650671078017
 10
3992.589493468785
 20
331.2851326164789
 10
3993.451070391862
 20
330.7849403087866
 10
3994.227955007247
 20
330.161401847248
 10
3994.902724238016
 20
329.4285941549401
 10
3995.460031930323
 20
328.6031326164791
 10
3995.887185776477
 20
327.7045172318635
 10
3994.812955007247
 20
326.8022095395559
 10
3994.734839622631
 20
326.8022095395559
 10
3994.406455007247
 20
327.5660556934019
 10
3993.963378084169
 20
328.2709403087867
 10
3993.416570391862
 20
328.8986326164786
 10
3992.779301161093
 20
329.4342480010941
 10
3992.066916545708
 20
329.8648633857099
 10
3991.29637808417
 20
330.1800941549404
 10
3990.486378084169
 20
330.3722095395556
 10
3989.656416545708
 20
330.4368249241711
  0
LWPOLYLINE
  5
5EEC
330
2
100
AcDbEntity
  8
構造
100
AcDbPolyline
 90
        4
 70
     1
 43
0.0
 10
4551.663293810401
 20
207.3264754849927
 10
4789.163293810401
 20
207.3264754849927
 10
4789.163293810402
 20
444.8264754849924
 10
4551.663293810401
 20
444.8264754849931
  0
CIRCLE
  5
5EED
330
2
100
AcDbEntity
  8
構造
100
AcDbCircle
 10
4670.413293810401
 20
326.0764754849927
 30
0.0
 40
59.5
  0
LINE
  5
5EEE
330
2
100
AcDbEntity
  8
構造
100
AcDbLine
 10
4404.861463934551
 20
36.65085576941897
 30
0.0
 11
4564.861463934551
 21
36.65085576941874
 31
0.0
  0
LINE
  5
5EEF
330
2
100
AcDbEntity
  8
構造
  6
HIDDEN2
100
AcDbLine
 10
4404.861463934551
 20
40.85085576941901
 30
0.0
 11
4563.2381656747
 21
40.85085576941879
 31
0.0
  0
LINE
  5
5EF0
330
2
100
AcDbEntity
  8
構造
  6
HIDDEN2
100
AcDbLine
 10
4598.616432524767
 20
73.0008557694191
 30
0.0
 11
4563.2381656747
 21
40.85085576941879
 31
0.0
  0
LINE
  5
5EF1
330
2
100
AcDbEntity
  8
構造
100
AcDbLine
 10
4604.861463934551
 20
73.0008557694191
 30
0.0
 11
4564.861463934551
 21
109.350855769419
 31
0.0
  0
LINE
  5
5EF2
330
2
100
AcDbEntity
  8
構造
  6
HIDDEN2
100
AcDbLine
 10
4598.616432524767
 20
73.0008557694191
 30
0.0
 11
4562.798000612801
 21
105.5508557694188
 31
0.0
  0
CIRCLE
  5
5EF3
330
2
100
AcDbEntity
  8
構造
100
AcDbCircle
 10
4686.64075790292
 20
-92.16844958115576
 30
0.0
 40
44.55
  0
CIRCLE
  5
5EF4
330
2
100
AcDbEntity
  8
構造
100
AcDbCircle
 10
4686.64075790292
 20
-92.16844958115576
 30
0.0
 40
40.35
  0
SOLID
  5
5EF5
330
2
100
AcDbEntity
  8
寸法
  6
ByBlock
100
AcDbTrace
 10
4763.216165173338
 20
-148.9684495811559
 30
0.0
 11
4763.216165173337
 21
-150.4684495811559
 31
0.0
 12
4767.716165173337
 22
-149.7184495811559
 32
0.0
 13
4767.716165173337
 23
-149.7184495811559
 33
0.0
  0
SOLID
  5
5EF6
330
2
100
AcDbEntity
  8
寸法
  6
ByBlock
100
AcDbTrace
 10
4757.216165173337
 20
-148.9684495811559
 30
0.0
 11
4757.216165173337
 21
-150.4684495811559
 31
0.0
 12
4752.716165173337
 22
-149.7184495811559
 32
0.0
 13
4752.716165173337
 23
-149.7184495811559
 33
0.0
  0
CIRCLE
  5
5EF7
330
2
100
AcDbEntity
  8
構造
  6
Continuous
100
AcDbCircle
 10
4214.626180325228
 20
372.2757721183209
 30
0.0
 40
14.5
  0
LINE
  5
5EF8
330
2
100
AcDbEntity
  8
構造
  6
Continuous
100
AcDbLine
 10
4337.694284440322
 20
241.2171779252844
 30
0.0
 11
4337.694284440322
 21
404.3341779252846
 31
0.0
  0
LINE
  5
5EF9
330
2
100
AcDbEntity
  8
寸法
  6
Continuous
100
AcDbLine
 10
4324.049617526727
 20
386.7758979252844
 30
0.0
 11
4324.049617526727
 21
357.7758979252847
 31
0.0
  0
LINE
  5
5EFA
330
2
100
AcDbEntity
  8
寸法
  6
Continuous
100
AcDbLine
 10
4431.338951353915
 20
380.7757779252845
 30
0.0
 11
4431.338951353916
 21
363.7757779252847
 31
0.0
  0
LINE
  5
5EFB
330
2
100
AcDbEntity
  8
寸法
  6
Continuous
100
AcDbLine
 10
4443.013060660242
 20
407.7757779252845
 30
0.0
 11
4443.013060660242
 21
237.7757779252845
 31
0.0
  0
LINE
  5
5EFC
330
2
100
AcDbEntity
  8
中心線
100
AcDbLine
 10
4199.152659108582
 20
381.2097779252847
 30
0.0
 11
4288.352659108581
 21
329.7088979252846
 31
0.0
  0
LINE
  5
5EFD
330
2
100
AcDbEntity
  8
中心線
100
AcDbLine
 10
4169.223659108582
 20
346.0628979252847
 30
0.0
 11
4229.845539108582
 21
381.0625779252846
 31
0.0
  0
CIRCLE
  5
5EFE
330
2
100
AcDbEntity
  8
構造
  6
Continuous
100
AcDbCircle
 10
4214.626059108581
 20
372.2758979252849
 30
0.0
 40
8.50004
  0
LINE
  5
5EFF
330
2
100
AcDbEntity
  8
中心線
  6
Continuous
100
AcDbLine
 10
4214.626339108581
 20
381.1999779252847
 30
0.0
 11
4214.626339108581
 21
262.1999779252849
 31
0.0
  0
CIRCLE
  5
5F00
330
2
100
AcDbEntity
  8
構造
  6
Continuous
100
AcDbCircle
 10
4224.152659108582
 20
322.7757779252847
 30
0.0
 40
85.0
  0
CIRCLE
  5
5F01
330
2
100
AcDbEntity
  8
構造
  6
Continuous
100
AcDbCircle
 10
4186.045580325228
 20
289.7771157947327
 30
0.0
 40
14.5
  0
CIRCLE
  5
5F02
330
2
100
AcDbEntity
  8
構造
  6
Continuous
100
AcDbCircle
 10
4186.045580325228
 20
322.7771252948216
 30
0.0
 40
14.5
  0
CIRCLE
  5
5F03
330
2
100
AcDbEntity
  8
構造
  6
Continuous
100
AcDbCircle
 10
4186.047473152699
 20
355.7760263853909
 30
0.0
 40
14.5
  0
LINE
  5
5F04
330
2
100
AcDbEntity
  8
中心線
100
AcDbLine
 10
4169.652659108582
 20
313.3105779252844
 30
0.0
 11
4257.987459108581
 21
364.3100979252847
 31
0.0
  0
LINE
  5
5F05
330
2
100
AcDbEntity
  8
中心線
100
AcDbLine
 10
4169.652659108582
 20
299.2419779252846
 30
0.0
 11
4230.274059108582
 21
264.2413779252845
 31
0.0
  0
LINE
  5
5F06
330
2
100
AcDbEntity
  8
中心線
100
AcDbLine
 10
4169.652659108582
 20
332.2419779252846
 30
0.0
 11
4257.986659108581
 21
281.2411779252845
 31
0.0
  0
LINE
  5
5F07
330
2
100
AcDbEntity
  8
中心線
100
AcDbLine
 10
4169.652659108582
 20
365.2419779252846
 30
0.0
 11
4280.876859108581
 21
301.0251779252847
 31
0.0
  0
LINE
  5
5F08
330
2
100
AcDbEntity
  8
中心線
100
AcDbLine
 10
4169.652659108582
 20
280.3105779252846
 30
0.0
 11
4288.510939108582
 21
348.9325779252845
 31
0.0
  0
CIRCLE
  5
5F09
330
2
100
AcDbEntity
  8
構造
  6
Continuous
100
AcDbCircle
 10
4186.046339108581
 20
289.7760979252846
 30
0.0
 40
8.5
  0
CIRCLE
  5
5F0A
330
2
100
AcDbEntity
  8
構造
  6
Continuous
100
AcDbCircle
 10
4186.045859108582
 20
322.7757779252845
 30
0.0
 40
8.49996
  0
CIRCLE
  5
5F0B
330
2
100
AcDbEntity
  8
構造
  6
Continuous
100
AcDbCircle
 10
4186.046339108581
 20
355.7760979252848
 30
0.0
 40
8.5
  0
LINE
  5
5F0C
330
2
100
AcDbEntity
  8
中心線
  6
Continuous
100
AcDbLine
 10
4186.046339108581
 20
365.6999779252847
 30
0.0
 11
4186.046339108581
 21
277.6999779252849
 31
0.0
  0
LWPOLYLINE
  5
5F0D
330
2
100
AcDbEntity
  8
構造
  6
Continuous
100
AcDbPolyline
 90
        2
 70
     0
 43
0.0
 10
4397.694284440322
 20
264.7757779252847
 10
4337.694284440322
 20
258.7758979252844
  0
LWPOLYLINE
  5
5F0E
330
2
100
AcDbEntity
  8
構造
  6
Continuous
100
AcDbPolyline
 90
        2
 70
     0
 43
0.0
 10
4397.694284440322
 20
281.775777925285
 10
4337.694284440322
 20
287.7758979252844
  0
LINE
  5
5F0F
330
2
100
AcDbEntity
  8
構造
  6
Continuous
100
AcDbLine
 10
4359.294279708019
 20
237.7757779252845
 30
0.0
 11
4385.027690201851
 21
263.5091438346265
 31
0.0
  0
LINE
  5
5F10
330
2
100
AcDbEntity
  8
構造
  6
Continuous
100
AcDbLine
 10
4366.478479867123
 20
237.7757779252845
 30
0.0
 11
4393.010117045149
 21
264.3073705541021
 31
0.0
  0
LINE
  5
5F11
330
2
100
AcDbEntity
  8
構造
  6
Continuous
100
AcDbLine
 10
4373.662684440322
 20
237.7757779252845
 30
0.0
 11
4400.662684440322
 21
264.7757779252847
 31
0.0
  0
LINE
  5
5F12
330
2
100
AcDbEntity
  8
構造
  6
Continuous
100
AcDbLine
 10
4380.846879980851
 20
237.7757779252847
 30
0.0
 11
4407.846924443813
 21
264.7757779252847
 31
0.0
  0
LINE
  5
5F13
330
2
100
AcDbEntity
  8
構造
  6
Continuous
100
AcDbLine
 10
4373.523296275856
 20
284.4731884066809
 30
0.0
 11
4385.618355437842
 21
296.5682091768947
 31
0.0
  0
LINE
  5
5F14
330
2
100
AcDbEntity
  8
構造
  6
Continuous
100
AcDbLine
 10
4379.799625738666
 20
283.5652795847675
 30
0.0
 11
4393.600738010706
 21
297.3664314694158
 31
0.0
  0
LINE
  5
5F15
330
2
100
AcDbEntity
  8
構造
  6
Continuous
100
AcDbLine
 10
4374.177599925202
 20
317.1274934101657
 30
0.0
 11
4386.729419917798
 21
329.6793134027614
 31
0.0
  0
LINE
  5
5F16
330
2
100
AcDbEntity
  8
構造
  6
Continuous
100
AcDbLine
 10
4380.708678959604
 20
316.4743724445673
 30
0.0
 11
4394.711846623517
 21
330.4775401084798
 31
0.0
  0
LINE
  5
5F17
330
2
100
AcDbEntity
  8
構造
  6
Continuous
100
AcDbLine
 10
4370.254739589109
 20
350.5204330740721
 30
0.0
 11
4381.934097240738
 21
362.1997907257005
 31
0.0
  0
LINE
  5
5F18
330
2
100
AcDbEntity
  8
構造
  6
Continuous
100
AcDbLine
 10
4376.785936383159
 20
349.8674298681221
 30
0.0
 11
4389.916523946456
 21
362.9980174314192
 31
0.0
  0
LINE
  5
5F19
330
2
100
AcDbEntity
  8
中心線
100
AcDbLine
 10
4330.956404440321
 20
273.2757779252847
 30
0.0
 11
4425.778110357132
 21
273.2757779252847
 31
0.0
  0
LINE
  5
5F1A
330
2
100
AcDbEntity
  8
中心線
100
AcDbLine
 10
4330.956404440321
 20
306.2757779252847
 30
0.0
 11
4425.778110357132
 21
306.2757779252847
 31
0.0
  0
LINE
  5
5F1B
330
2
100
AcDbEntity
  8
中心線
100
AcDbLine
 10
4330.956404440321
 20
339.2757779252847
 30
0.0
 11
4425.778110357132
 21
339.2757779252847
 31
0.0
  0
CIRCLE
  5
5F1C
330
2
100
AcDbEntity
  8
構造
  6
Continuous
100
AcDbCircle
 10
4214.626180325229
 20
273.2757128518774
 30
0.0
 40
14.5
  0
CIRCLE
  5
5F1D
330
2
100
AcDbEntity
  8
構造
  6
Continuous
100
AcDbCircle
 10
4243.204780325228
 20
289.7754033317854
 30
0.0
 40
14.5
  0
LINE
  5
5F1E
330
2
100
AcDbEntity
  8
中心線
100
AcDbLine
 10
4203.294859108581
 20
266.7336579252847
 30
0.0
 11
4289.897539108581
 21
316.7331779252847
 31
0.0
  0
CIRCLE
  5
5F1F
330
2
100
AcDbEntity
  8
構造
  6
Continuous
100
AcDbCircle
 10
4214.625739108582
 20
273.2757779252845
 30
0.0
 40
8.50004
  0
CIRCLE
  5
5F20
330
2
100
AcDbEntity
  8
構造
  6
Continuous
100
AcDbCircle
 10
4243.204939108582
 20
289.7754979252848
 30
0.0
 40
8.50004
  0
LINE
  5
5F21
330
2
100
AcDbEntity
  8
中心線
  6
Continuous
100
AcDbLine
 10
4243.204939108582
 20
366.7757779252845
 30
0.0
 11
4243.204939108582
 21
277.7757779252845
 31
0.0
  0
LINE
  5
5F22
330
2
100
AcDbEntity
  8
寸法
  6
Continuous
100
AcDbLine
 10
4337.694284440322
 20
233.7757779252845
 30
0.0
 11
4337.694284440322
 21
210.7757779252845
 31
0.0
  0
LINE
  5
5F23
330
2
100
AcDbEntity
  8
構造
  6
Continuous
100
AcDbLine
 10
4337.741724440321
 20
237.7757779252847
 30
0.0
 11
4360.874996101041
 21
260.9090495860039
 31
0.0
  0
LINE
  5
5F24
330
2
100
AcDbEntity
  8
構造
  6
Continuous
100
AcDbLine
 10
4337.694284440322
 20
252.0967779252846
 30
0.0
 11
4345.111829574349
 21
259.5143230593114
 31
0.0
  0
LINE
  5
5F25
330
2
100
AcDbEntity
  8
構造
  6
Continuous
100
AcDbLine
 10
4337.694284440322
 20
244.9125779252847
 30
0.0
 11
4353.090294963784
 21
260.3085884487461
 31
0.0
  0
LINE
  5
5F26
330
2
100
AcDbEntity
  8
構造
  6
Continuous
100
AcDbLine
 10
4344.925929523479
 20
237.7757779252845
 30
0.0
 11
4369.062792977611
 21
261.9126860419969
 31
0.0
  0
LINE
  5
5F27
330
2
100
AcDbEntity
  8
構造
  6
Continuous
100
AcDbLine
 10
4352.110129342371
 20
237.7757779252845
 30
0.0
 11
4377.045219526736
 21
262.7109127320559
 31
0.0
  0
LINE
  5
5F28
330
2
100
AcDbEntity
  8
寸法
  6
Continuous
100
AcDbLine
 10
4277.783539108581
 20
306.2752979252848
 30
0.0
 11
4324.352659108581
 21
306.2752979252846
 31
0.0
  0
LINE
  5
5F29
330
2
100
AcDbEntity
  8
寸法
  6
Continuous
100
AcDbLine
 10
4277.783539108582
 20
339.2751779252844
 30
0.0
 11
4324.352659108582
 21
339.2751779252844
 31
0.0
  0
CIRCLE
  5
5F2A
330
2
100
AcDbEntity
  8
構造
  6
Continuous
100
AcDbCircle
 10
4243.204423218303
 20
322.7756862528217
 30
0.0
 40
14.5
  0
CIRCLE
  5
5F2B
330
2
100
AcDbEntity
  8
構造
  6
Continuous
100
AcDbCircle
 10
4214.626180325228
 20
339.2751300571174
 30
0.0
 40
14.5
  0
CIRCLE
  5
5F2C
330
2
100
AcDbEntity
  8
構造
  6
Continuous
100
AcDbCircle
 10
4271.783539108581
 20
339.2751300571176
 30
0.0
 40
14.5
  0
LINE
  5
5F2D
330
2
100
AcDbEntity
  8
中心線
  6
Continuous
100
AcDbLine
 10
4271.783539108581
 20
352.1999779252849
 30
0.0
 11
4271.783539108581
 21
291.1999779252847
 31
0.0
  0
CIRCLE
  5
5F2E
330
2
100
AcDbEntity
  8
構造
  6
Continuous
100
AcDbCircle
 10
4243.204939108582
 20
322.7758979252844
 30
0.0
 40
8.5
  0
CIRCLE
  5
5F2F
330
2
100
AcDbEntity
  8
構造
  6
Continuous
100
AcDbCircle
 10
4214.626180325228
 20
306.2757389149449
 30
0.0
 40
14.5
  0
CIRCLE
  5
5F30
330
2
100
AcDbEntity
  8
構造
  6
Continuous
100
AcDbCircle
 10
4214.626059108581
 20
306.2757779252847
 30
0.0
 40
8.50004
  0
CIRCLE
  5
5F31
330
2
100
AcDbEntity
  8
構造
  6
Continuous
100
AcDbCircle
 10
4271.783380325229
 20
306.2750807352097
 30
0.0
 40
14.5
  0
CIRCLE
  5
5F32
330
2
100
AcDbEntity
  8
構造
  6
Continuous
100
AcDbCircle
 10
4271.783539108581
 20
306.2752979252848
 30
0.0
 40
8.50004
  0
CIRCLE
  5
5F33
330
2
100
AcDbEntity
  8
構造
  6
Continuous
100
AcDbCircle
 10
4243.204780325228
 20
355.7754148529389
 30
0.0
 40
14.5
  0
CIRCLE
  5
5F34
330
2
100
AcDbEntity
  8
構造
  6
Continuous
100
AcDbCircle
 10
4243.204939108582
 20
355.7754979252845
 30
0.0
 40
8.5
  0
CIRCLE
  5
5F35
330
2
100
AcDbEntity
  8
構造
  6
Continuous
100
AcDbCircle
 10
4214.626059108581
 20
339.2757779252847
 30
0.0
 40
8.50004
  0
CIRCLE
  5
5F36
330
2
100
AcDbEntity
  8
構造
  6
Continuous
100
AcDbCircle
 10
4271.783539108581
 20
339.2751779252844
 30
0.0
 40
8.5
  0
LINE
  5
5F37
330
2
100
AcDbEntity
  8
寸法
  6
Continuous
100
AcDbLine
 10
4321.352659108582
 20
339.2751779252844
 30
0.0
 11
4321.352659108581
 21
306.2752979252846
 31
0.0
  0
LINE
  5
5F38
330
2
100
AcDbEntity
  8
構造
  6
Continuous
100
AcDbLine
 10
4348.05347056716
 20
319.7401640521234
 30
0.0
 11
4354.799713094924
 21
326.4864065798877
 31
0.0
  0
LINE
  5
5F39
330
2
100
AcDbEntity
  8
構造
  6
Continuous
100
AcDbLine
 10
4354.584362821997
 20
319.0868563069605
 30
0.0
 11
4362.782139800643
 21
327.2846332856061
 31
0.0
  0
LINE
  5
5F3A
330
2
100
AcDbEntity
  8
構造
  6
Continuous
100
AcDbLine
 10
4361.115441856398
 20
318.4337353413621
 30
0.0
 11
4370.764566506361
 21
328.0828599913245
 31
0.0
  0
LINE
  5
5F3B
330
2
100
AcDbEntity
  8
構造
  6
Continuous
100
AcDbLine
 10
4367.646520890801
 20
317.7806143757637
 30
0.0
 11
4378.74699321208
 21
328.881086697043
 31
0.0
  0
LINE
  5
5F3C
330
2
100
AcDbEntity
  8
構造
  6
Continuous
100
AcDbLine
 10
4353.675598077757
 20
286.1780515627208
 30
0.0
 11
4361.671075603008
 21
294.1735290879708
 31
0.0
  0
LINE
  5
5F3D
330
2
100
AcDbEntity
  8
構造
  6
Continuous
100
AcDbLine
 10
4340.61320202446
 20
287.4840582210977
 30
0.0
 11
4345.706181006819
 21
292.5770715581414
 31
0.0
  0
LINE
  5
5F3E
330
2
100
AcDbEntity
  8
構造
  6
Continuous
100
AcDbLine
 10
4347.144366701983
 20
286.831058226227
 30
0.0
 11
4353.688646670534
 21
293.3753021595815
 31
0.0
  0
LINE
  5
5F3F
330
2
100
AcDbEntity
  8
構造
  6
Continuous
100
AcDbLine
 10
4360.206758507581
 20
285.5250519925444
 30
0.0
 11
4369.65345786438
 21
294.9717513493435
 31
0.0
  0
LINE
  5
5F40
330
2
100
AcDbEntity
  8
構造
  6
Continuous
100
AcDbLine
 10
4366.737991665857
 20
284.87204515082
 30
0.0
 11
4377.635929014445
 21
295.7699824994077
 31
0.0
  0
LINE
  5
5F41
330
2
100
AcDbEntity
  8
構造
  6
Continuous
100
AcDbLine
 10
4337.694284440322
 20
323.7493779252845
 30
0.0
 11
4338.834293667731
 21
324.8893871526946
 31
0.0
  0
LINE
  5
5F42
330
2
100
AcDbEntity
  8
構造
  6
Continuous
100
AcDbLine
 10
4341.522273773111
 20
320.3931672580741
 30
0.0
 11
4346.817286389206
 21
325.6881798741692
 31
0.0
  0
LINE
  5
5F43
330
2
100
AcDbEntity
  8
寸法
  6
Continuous
100
AcDbLine
 10
4333.694284440322
 20
357.7758979252844
 30
0.0
 11
4321.049617526727
 21
357.7758979252844
 31
0.0
  0
LINE
  5
5F44
330
2
100
AcDbEntity
  8
構造
  6
Continuous
100
AcDbLine
 10
4350.661149206961
 20
352.4794426919234
 30
0.0
 11
4357.986817123582
 21
359.8051106085454
 31
0.0
  0
LINE
  5
5F45
330
2
100
AcDbEntity
  8
構造
  6
Continuous
100
AcDbLine
 10
4337.694284440322
 20
353.8809779252845
 30
0.0
 11
4342.019816081231
 21
358.2065095661926
 31
0.0
  0
LINE
  5
5F46
330
2
100
AcDbEntity
  8
構造
  6
Continuous
100
AcDbLine
 10
4344.129952412911
 20
353.1324458978738
 30
0.0
 11
4349.998281470664
 21
359.0007749556273
 31
0.0
  0
LINE
  5
5F47
330
2
100
AcDbEntity
  8
構造
  6
Continuous
100
AcDbLine
 10
4357.19234600101
 20
351.8264394859732
 30
0.0
 11
4365.9692438293
 21
360.6033373142639
 31
0.0
  0
LINE
  5
5F48
330
2
100
AcDbEntity
  8
構造
  6
Continuous
100
AcDbLine
 10
4363.72354279506
 20
351.1734362800225
 30
0.0
 11
4373.95167053502
 21
361.4015640199823
 31
0.0
  0
LINE
  5
5F49
330
2
100
AcDbEntity
  8
構造
  6
Continuous
100
AcDbLine
 10
4397.694284440322
 20
281.775777925285
 30
0.0
 11
4397.694284440322
 21
264.7757779252847
 31
0.0
  0
LINE
  5
5F4A
330
2
100
AcDbEntity
  8
寸法
  6
Continuous
100
AcDbLine
 10
4412.694284440321
 20
233.7757779252847
 30
0.0
 11
4412.694284440321
 21
210.7757779252847
 31
0.0
  0
LINE
  5
5F4B
330
2
100
AcDbEntity
  8
寸法
  6
Continuous
100
AcDbLine
 10
4421.694284440322
 20
237.7757779252845
 30
0.0
 11
4446.013060660242
 21
237.7757779252847
 31
0.0
  0
LINE
  5
5F4C
330
2
100
AcDbEntity
  8
構造
  6
Continuous
100
AcDbLine
 10
4388.031084440321
 20
237.7757779252845
 30
0.0
 11
4412.694284440322
 21
262.4389779252849
 31
0.0
  0
LINE
  5
5F4D
330
2
100
AcDbEntity
  8
構造
  6
Continuous
100
AcDbLine
 10
4395.215328100815
 20
237.7757779252847
 30
0.0
 11
4412.694284440322
 21
255.2547780495329
 31
0.0
  0
LINE
  5
5F4E
330
2
100
AcDbEntity
  8
構造
  6
Continuous
100
AcDbLine
 10
4402.421604440322
 20
237.7978579252847
 30
0.0
 11
4412.694284440322
 21
248.0705782669413
 31
0.0
  0
LINE
  5
5F4F
330
2
100
AcDbEntity
  8
構造
  6
Continuous
100
AcDbLine
 10
4409.641084440322
 20
237.8331779252846
 30
0.0
 11
4412.694284440321
 21
240.8863362251564
 31
0.0
  0
LINE
  5
5F50
330
2
100
AcDbEntity
  8
構造
  6
Continuous
100
AcDbLine
 10
4387.239757994006
 20
315.8212514789689
 30
0.0
 11
4402.194284440322
 21
330.7757779252845
 31
0.0
  0
LINE
  5
5F51
330
2
100
AcDbEntity
  8
構造
  6
Continuous
100
AcDbLine
 10
4393.770837028407
 20
315.1681305133709
 30
0.0
 11
4409.378484440322
 21
330.7757779252847
 31
0.0
  0
LINE
  5
5F52
330
2
100
AcDbEntity
  8
構造
  6
Continuous
100
AcDbLine
 10
4400.552684440321
 20
314.7657779252845
 30
0.0
 11
4412.694284440322
 21
326.9073779252844
 31
0.0
  0
LINE
  5
5F53
330
2
100
AcDbEntity
  8
構造
  6
Continuous
100
AcDbLine
 10
4392.861784056786
 20
282.2590376286391
 30
0.0
 11
4408.378484440322
 21
297.7757779252845
 31
0.0
  0
LINE
  5
5F54
330
2
100
AcDbEntity
  8
構造
  6
Continuous
100
AcDbLine
 10
4399.562684440321
 20
281.7757779252847
 30
0.0
 11
4412.694284440322
 21
294.9073779252847
 31
0.0
  0
LINE
  5
5F55
330
2
100
AcDbEntity
  8
構造
  6
Continuous
100
AcDbLine
 10
4406.746884440321
 20
281.7757779252847
 30
0.0
 11
4412.694284440322
 21
287.7231779252847
 31
0.0
  0
LINE
  5
5F56
330
2
100
AcDbEntity
  8
構造
  6
Continuous
100
AcDbLine
 10
4386.330668737804
 20
282.9121622227681
 30
0.0
 11
4401.015145453602
 21
297.5966389385649
 31
0.0
  0
LINE
  5
5F57
330
2
100
AcDbEntity
  8
構造
  6
Continuous
100
AcDbLine
 10
4407.736884440321
 20
314.7657779252845
 30
0.0
 11
4412.694284440321
 21
319.7231779252847
 31
0.0
  0
LINE
  5
5F58
330
2
100
AcDbEntity
  8
寸法
  6
Continuous
100
AcDbLine
 10
4421.694284440322
 20
363.7757779252845
 30
0.0
 11
4434.338951353917
 21
363.7757779252845
 31
0.0
  0
LINE
  5
5F59
330
2
100
AcDbEntity
  8
構造
  6
Continuous
100
AcDbLine
 10
4396.369484440322
 20
347.8983779252844
 30
0.0
 11
4412.246884440321
 21
363.7757779252843
 31
0.0
  0
LINE
  5
5F5A
330
2
100
AcDbEntity
  8
構造
  6
Continuous
100
AcDbLine
 10
4403.421084440321
 20
347.7657779252847
 30
0.0
 11
4412.694284440322
 21
357.0389779252844
 31
0.0
  0
LINE
  5
5F5B
330
2
100
AcDbEntity
  8
構造
  6
Continuous
100
AcDbLine
 10
4410.605284440322
 20
347.7657779252847
 30
0.0
 11
4412.694284440322
 21
349.8547779252845
 31
0.0
  0
LINE
  5
5F5C
330
2
100
AcDbEntity
  8
構造
  6
Continuous
100
AcDbLine
 10
4383.317133177208
 20
349.214426662171
 30
0.0
 11
4397.898950652174
 21
363.7962441371376
 31
0.0
  0
LINE
  5
5F5D
330
2
100
AcDbEntity
  8
構造
  6
Continuous
100
AcDbLine
 10
4389.792404440321
 20
348.5054979252848
 30
0.0
 11
4405.062684440321
 21
363.7757779252843
 31
0.0
  0
LINE
  5
5F5E
330
2
100
AcDbEntity
  8
構造
  6
Continuous
100
AcDbLine
 10
4359.668799073916
 20
384.7502925588797
 30
0.0
 11
4382.694084440322
 21
407.7755779252852
 31
0.0
  0
LINE
  5
5F5F
330
2
100
AcDbEntity
  8
構造
  6
Continuous
100
AcDbLine
 10
4366.246654019253
 20
384.1439475042162
 30
0.0
 11
4389.878284440321
 21
407.775577925285
 31
0.0
  0
LINE
  5
5F60
330
2
100
AcDbEntity
  8
構造
  6
Continuous
100
AcDbLine
 10
4372.824508964589
 20
383.537602449552
 30
0.0
 11
4397.062484440321
 21
407.7755779252848
 31
0.0
  0
LINE
  5
5F61
330
2
100
AcDbEntity
  8
構造
  6
Continuous
100
AcDbLine
 10
4379.402363909925
 20
382.9312573948887
 30
0.0
 11
4404.246684440321
 21
407.7755779252848
 31
0.0
  0
LINE
  5
5F62
330
2
100
AcDbEntity
  8
中心線
100
AcDbLine
 10
4330.956404440321
 20
372.2757779252845
 30
0.0
 11
4425.778110357132
 21
372.2757779252845
 31
0.0
  0
LINE
  5
5F63
330
2
100
AcDbEntity
  8
寸法
  6
Continuous
100
AcDbLine
 10
4333.694284440322
 20
386.7758979252844
 30
0.0
 11
4321.049617526727
 21
386.7758979252844
 31
0.0
  0
LINE
  5
5F64
330
2
100
AcDbEntity
  8
構造
  6
Continuous
100
AcDbLine
 10
4337.694284440322
 20
391.5125779252844
 30
0.0
 11
4353.957284440321
 21
407.7755779252852
 31
0.0
  0
LINE
  5
5F65
330
2
100
AcDbEntity
  8
構造
  6
Continuous
100
AcDbLine
 10
4339.919338695125
 20
386.5534321800881
 30
0.0
 11
4361.141484440321
 21
407.7755779252848
 31
0.0
  0
LINE
  5
5F66
330
2
100
AcDbEntity
  8
構造
  6
Continuous
100
AcDbLine
 10
4346.450535489173
 20
385.9004289741374
 30
0.0
 11
4368.325684440321
 21
407.7755779252848
 31
0.0
  0
LINE
  5
5F67
330
2
100
AcDbEntity
  8
構造
  6
Continuous
100
AcDbLine
 10
4353.09094412858
 20
385.3566376135429
 30
0.0
 11
4375.509884440322
 21
407.775577925285
 31
0.0
  0
LINE
  5
5F68
330
2
100
AcDbEntity
  8
構造
  6
Continuous
100
AcDbLine
 10
4339.804604440322
 20
407.7092979252848
 30
0.0
 11
4340.316204440322
 21
407.775577925285
 31
0.0
  0
LINE
  5
5F69
330
2
100
AcDbEntity
  8
構造
  6
Continuous
100
AcDbLine
 10
4337.694284440322
 20
398.696777925285
 30
0.0
 11
4346.773084440321
 21
407.775577925285
 31
0.0
  0
LINE
  5
5F6A
330
2
100
AcDbEntity
  8
寸法
  6
Continuous
100
AcDbLine
 10
4421.694284440321
 20
380.7757779252843
 30
0.0
 11
4434.338951353916
 21
380.7757779252843
 31
0.0
  0
LINE
  5
5F6B
330
2
100
AcDbEntity
  8
寸法
  6
Continuous
100
AcDbLine
 10
4421.694284440321
 20
407.7757779252847
 30
0.0
 11
4446.013060660242
 21
407.7757779252847
 31
0.0
  0
LINE
  5
5F6C
330
2
100
AcDbEntity
  8
構造
  6
Continuous
100
AcDbLine
 10
4385.980218855262
 20
382.3249123402247
 30
0.0
 11
4411.351404440322
 21
407.6960979252844
 31
0.0
  0
LINE
  5
5F6D
330
2
100
AcDbEntity
  8
構造
  6
Continuous
100
AcDbLine
 10
4392.558073800597
 20
381.7185672855612
 30
0.0
 11
4412.694284440322
 21
401.8547779252845
 31
0.0
  0
LINE
  5
5F6E
330
2
100
AcDbEntity
  8
構造
  6
Continuous
100
AcDbLine
 10
4399.135928745935
 20
381.1122222308977
 30
0.0
 11
4412.694284440322
 21
394.6705779252848
 31
0.0
  0
LINE
  5
5F6F
330
2
100
AcDbEntity
  8
構造
  6
Continuous
100
AcDbLine
 10
4405.973684440321
 20
380.7657779252845
 30
0.0
 11
4412.694284440321
 21
387.4863779252846
 31
0.0
  0
LINE
  5
5F70
330
2
100
AcDbEntity
  8
寸法
  6
ByBlock
100
AcDbLine
 10
4321.352659108582
 20
334.7751779252847
 30
0.0
 11
4321.352659108581
 21
310.7752979252846
 31
0.0
  0
SOLID
  5
5F71
330
2
100
AcDbEntity
  8
寸法
  6
ByBlock
100
AcDbTrace
 10
4320.602659108581
 20
310.7752979252846
 30
0.0
 11
4322.102659108581
 21
310.7752979252848
 31
0.0
 12
4321.352659108581
 22
306.2752979252846
 32
0.0
 13
4321.352659108581
 23
306.2752979252846
 33
0.0
  0
LINE
  5
5F72
330
2
100
AcDbEntity
  8
寸法
  6
ByBlock
100
AcDbLine
 10
4324.049617526727
 20
382.2758979252849
 30
0.0
 11
4324.049617526727
 21
362.2758979252844
 31
0.0
  0
SOLID
  5
5F73
330
2
100
AcDbEntity
  8
寸法
  6
ByBlock
100
AcDbTrace
 10
4323.299617526727
 20
382.2758979252849
 30
0.0
 11
4324.799617526727
 21
382.2758979252847
 31
0.0
 12
4324.049617526727
 22
386.7758979252844
 32
0.0
 13
4324.049617526727
 23
386.7758979252844
 33
0.0
  0
SOLID
  5
5F74
330
2
100
AcDbEntity
  8
寸法
  6
ByBlock
100
AcDbTrace
 10
4323.299617526727
 20
362.2758979252847
 30
0.0
 11
4324.799617526727
 21
362.2758979252844
 31
0.0
 12
4324.049617526727
 22
357.7758979252847
 32
0.0
 13
4324.049617526727
 23
357.7758979252847
 33
0.0
  0
LINE
  5
5F75
330
2
100
AcDbEntity
  8
寸法
  6
ByBlock
100
AcDbLine
 10
4431.338951353916
 20
376.2757779252847
 30
0.0
 11
4431.338951353916
 21
368.275777925285
 31
0.0
  0
SOLID
  5
5F76
330
2
100
AcDbEntity
  8
寸法
  6
ByBlock
100
AcDbTrace
 10
4430.588951353917
 20
376.2757779252847
 30
0.0
 11
4432.088951353916
 21
376.2757779252847
 31
0.0
 12
4431.338951353915
 22
380.7757779252845
 32
0.0
 13
4431.338951353915
 23
380.7757779252845
 33
0.0
  0
SOLID
  5
5F77
330
2
100
AcDbEntity
  8
寸法
  6
ByBlock
100
AcDbTrace
 10
4430.588951353917
 20
368.2757779252847
 30
0.0
 11
4432.088951353917
 21
368.2757779252847
 31
0.0
 12
4431.338951353916
 22
363.7757779252847
 32
0.0
 13
4431.338951353916
 23
363.7757779252847
 33
0.0
  0
LINE
  5
5F78
330
2
100
AcDbEntity
  8
寸法
  6
ByBlock
100
AcDbLine
 10
4443.013060660242
 20
242.2757779252845
 30
0.0
 11
4443.013060660242
 21
403.2757779252847
 31
0.0
  0
SOLID
  5
5F79
330
2
100
AcDbEntity
  8
寸法
  6
ByBlock
100
AcDbTrace
 10
4442.263060660242
 20
242.2757779252847
 30
0.0
 11
4443.763060660242
 21
242.2757779252847
 31
0.0
 12
4443.013060660242
 22
237.7757779252845
 32
0.0
 13
4443.013060660242
 23
237.7757779252845
 33
0.0
  0
SOLID
  5
5F7A
330
2
100
AcDbEntity
  8
寸法
  6
ByBlock
100
AcDbTrace
 10
4442.263060660242
 20
403.2757779252847
 30
0.0
 11
4443.763060660242
 21
403.2757779252847
 31
0.0
 12
4443.013060660242
 22
407.7757779252845
 32
0.0
 13
4443.013060660242
 23
407.7757779252845
 33
0.0
  0
LINE
  5
5F7B
330
2
100
AcDbEntity
  8
寸法
  6
ByBlock
100
AcDbLine
 10
4342.194284440321
 20
213.7757779252847
 30
0.0
 11
4408.194284440322
 21
213.7757779252845
 31
0.0
  0
SOLID
  5
5F7C
330
2
100
AcDbEntity
  8
寸法
  6
ByBlock
100
AcDbTrace
 10
4342.194284440321
 20
214.5257779252847
 30
0.0
 11
4342.194284440322
 21
213.0257779252847
 31
0.0
 12
4337.694284440322
 22
213.7757779252845
 32
0.0
 13
4337.694284440322
 23
213.7757779252845
 33
0.0
  0
SOLID
  5
5F7D
330
2
100
AcDbEntity
  8
寸法
  6
ByBlock
100
AcDbTrace
 10
4408.194284440322
 20
214.5257779252845
 30
0.0
 11
4408.194284440322
 21
213.0257779252845
 31
0.0
 12
4412.694284440321
 22
213.7757779252847
 32
0.0
 13
4412.694284440321
 23
213.7757779252847
 33
0.0
  0
TEXT
  5
5F7E
330
2
100
AcDbEntity
  8
寸法
100
AcDbText
 10
4319.477659108581
 20
317.9180950681416
 30
0.0
 40
6.0
  1
33
 50
90.0
 41
0.8
  7
STYLE1
100
AcDbText
  0
TEXT
  5
5F7F
330
2
100
AcDbEntity
  8
寸法
100
AcDbText
 10
4322.77519687932
 20
365.1612663779683
 30
0.0
 40
6.0
  1
φ29
 50
90.0
 41
0.8
  7
STYLE1
100
AcDbText
  0
TEXT
  5
5F80
330
2
100
AcDbEntity
  8
寸法
100
AcDbText
 10
4429.463951353915
 20
365.1626210581685
 30
0.0
 40
6.0
  1
φ17
 50
90.0
 41
0.8
  7
STYLE1
100
AcDbText
  0
TEXT
  5
5F81
330
2
100
AcDbEntity
  8
寸法
100
AcDbText
 10
4441.138060660242
 20
313.2325749493973
 30
0.0
 40
6.0
  1
φ170
 50
90.0
 41
0.8
  7
STYLE1
100
AcDbText
  0
TEXT
  5
5F82
330
2
100
AcDbEntity
  8
寸法
100
AcDbText
 10
4372.565925869503
 20
215.6507779252845
 30
0.0
 40
6.0
  1
75
 41
0.8
  7
STYLE1
100
AcDbText
  0
SOLID
  5
5F83
330
2
100
AcDbEntity
  8
寸法
  6
ByBlock
100
AcDbTrace
 10
4320.602659108581
 20
334.7751779252847
 30
0.0
 11
4322.102659108581
 21
334.7751779252847
 31
0.0
 12
4321.352659108582
 22
339.2751779252844
 32
0.0
 13
4321.352659108582
 23
339.2751779252844
 33
0.0
  0
SOLID
  5
5F84
330
2
100
AcDbEntity
  8
寸法
  6
ByBlock
100
AcDbTrace
 10
4779.966165173338
 20
-56.31844958115562
 30
0.0
 11
4781.466165173338
 21
-56.31844958115562
 31
0.0
 12
4780.716165173337
 22
-51.81844958115562
 32
0.0
 13
4780.716165173337
 23
-51.81844958115562
 33
0.0
  0
LINE
  5
5F85
330
2
100
AcDbEntity
  8
寸法
  6
ByBlock
100
AcDbLine
 10
4490.445822749869
 20
444.8264754849938
 30
0.0
 11
4461.320822749869
 21
444.8264754849934
 31
-91.05934263440392
  0
LINE
  5
5F86
330
2
100
AcDbEntity
  8
寸法
  6
ByBlock
100
AcDbLine
 10
4490.445822749869
 20
207.3264754849927
 30
0.0
 11
4461.320822749869
 21
207.3264754849927
 31
-91.05934263440285
  0
LINE
  5
5F87
330
2
100
AcDbEntity
  8
寸法
  6
ByBlock
100
AcDbLine
 10
4466.320822749869
 20
211.8264754849929
 30
0.0
 11
4466.320822749869
 21
440.3264754849934
 31
0.0
  0
SOLID
  5
5F88
330
2
100
AcDbEntity
  8
寸法
  6
ByBlock
100
AcDbTrace
 10
4465.570822749869
 20
211.8264754849929
 30
0.0
 11
4467.070822749869
 21
211.8264754849929
 31
0.0
 12
4466.320822749869
 22
207.3264754849929
 32
0.0
 13
4466.320822749869
 23
207.3264754849929
 33
0.0
  0
SOLID
  5
5F89
330
2
100
AcDbEntity
  8
寸法
  6
ByBlock
100
AcDbTrace
 10
4465.570822749869
 20
440.3264754849934
 30
0.0
 11
4467.070822749869
 21
440.3264754849936
 31
0.0
 12
4466.32082274987
 22
444.8264754849936
 32
0.0
 13
4466.32082274987
 23
444.8264754849936
 33
0.0
  0
TEXT
  5
5F8A
330
2
100
AcDbEntity
  8
寸法
100
AcDbText
 10
4464.445822749869
 20
315.7907611992784
 30
0.0
 40
6.0
  1
φ300
 50
90.0
 41
0.8
  7
STYLE1
100
AcDbText
  0
LINE
  5
5F8B
330
2
100
AcDbEntity
  8
寸法
100
AcDbLine
 10
4731.190757902919
 20
-92.16844958115576
 30
0.0
 11
4731.190757902919
 21
-153.4684495811559
 31
0.0
  0
LINE
  5
5F8C
330
2
100
AcDbEntity
  8
寸法
100
AcDbLine
 10
4642.090757902919
 20
-92.16844958115598
 30
0.0
 11
4642.090757902919
 21
-153.4684495811559
 31
0.0
  0
LINE
  5
5F8D
330
2
100
AcDbEntity
  8
寸法
100
AcDbLine
 10
4731.190757902919
 20
-149.7184495811559
 30
0.0
 11
4642.090757902919
 21
-149.7184495811559
 31
0.0
  0
SOLID
  5
5F8E
330
2
100
AcDbEntity
  8
寸法
  6
ByBlock
100
AcDbTrace
 10
4646.590757902919
 20
-148.9684495811559
 30
0.0
 11
4646.590757902919
 21
-150.4684495811559
 31
0.0
 12
4642.090757902919
 22
-149.7184495811559
 32
0.0
 13
4642.090757902919
 23
-149.7184495811559
 33
0.0
  0
SOLID
  5
5F8F
330
2
100
AcDbEntity
  8
寸法
  6
ByBlock
100
AcDbTrace
 10
4726.690757902919
 20
-148.9684495811559
 30
0.0
 11
4726.690757902919
 21
-150.4684495811559
 31
0.0
 12
4731.190757902919
 22
-149.7184495811559
 32
0.0
 13
4731.190757902919
 23
-149.7184495811559
 33
0.0
  0
TEXT
  5
5F90
330
2
100
AcDbEntity
  8
寸法
100
AcDbText
 10
4679.410519224399
 20
-147.8434495811559
 30
0.0
 40
6.0
  1
89.1
 41
0.8
  7
STYLE1
100
AcDbText
  0
LEADER
  5
5F91
330
2
100
AcDbEntity
  8
文字
100
AcDbLeader
  3
STANDARD-15
 74
     0
 76
     2
 10
3788.570317914553
 20
256.8305975132066
 30
0.0
 10
3745.541876360729
 20
212.799457917969
 30
0.0
211
-1.0
221
6.106226635438361E-16
231
0.0
1001
ACAD
1000
DSTYLE
1002
{
1070
   288
1070
     0
1070
   144
1040
1.0
1002
}
  0
LINE
  5
5F92
330
2
100
AcDbEntity
  8
文字
100
AcDbLine
 10
3745.541876360729
 20
212.799457917969
 30
0.0
 11
3714.827780201182
 21
212.799457917969
 31
0.0
  0
TEXT
  5
5F93
330
2
100
AcDbEntity
  8
文字
100
AcDbText
 10
3714.40958312858
 20
215.1614567004233
 30
0.0
 40
6.0
  1
鋼製台座
 41
0.8
  7
STYLE1
100
AcDbText
  0
LINE
  5
5F94
330
2
100
AcDbEntity
  8
寸法
  6
ByBlock
100
AcDbLine
 10
4716.73497917726
 20
101.9971919429818
 30
0.0
 11
4688.579813406164
 21
81.20568789921185
 31
0.0
  0
SOLID
  5
5F95
330
2
100
AcDbEntity
  8
寸法
  6
ByBlock
100
AcDbTrace
 10
4691.75423106151
 20
84.48220625707677
 30
0.0
 11
4692.645295520528
 21
83.27555629545895
 31
0.0
 12
4688.579813406164
 22
81.20568789921185
 32
0.0
 13
4688.579813406164
 23
81.20568789921185
 33
0.0
  0
TEXT
  5
5F96
330
2
100
AcDbEntity
  8
寸法
100
AcDbText
 10
4694.600993635255
 20
87.03800910211976
 30
0.0
 40
6.0
  1
φ35
 50
36.44443782282197
 41
0.8
  7
STYLE1
100
AcDbText
  0
SOLID
  5
5F97
330
2
100
AcDbEntity
  8
寸法
  6
ByBlock
100
AcDbTrace
 10
4712.682454039143
 20
99.90206903371791
 30
0.0
 11
4713.581008773937
 21
98.70098644347831
 31
0.0
 12
4716.73497917726
 22
101.9971919429818
 32
0.0
 13
4716.73497917726
 23
101.9971919429818
 33
0.0
  0
TEXT
  5
5F98
330
2
100
AcDbEntity
  8
文字
  6
Continuous
 62
     4
100
AcDbText
 10
3716.910382064275
 20
-115.2777394348766
 30
0.0
 40
6.0
  1
Ｅ６
 41
0.8
  7
STYLE2
100
AcDbText
  0
TEXT
  5
5F99
330
2
100
AcDbEntity
  8
文字
  6
Continuous
 62
     4
100
AcDbText
 10
3768.338953492846
 20
-156.420584577734
 30
0.0
 40
6.0
  1
φ72.7/64.7×200
 41
0.8
  7
STYLE2
100
AcDbText
  0
TEXT
  5
5F9A
330
2
100
AcDbEntity
  8
文字
  6
Continuous
 62
     4
100
AcDbText
 10
3768.338953492846
 20
-183.8491560063053
 30
0.0
 40
6.0
  1
φ89.1×15
 41
0.8
  7
STYLE2
100
AcDbText
  0
TEXT
  5
5F9B
330
2
100
AcDbEntity
  8
文字
  6
Continuous
 62
     4
100
AcDbText
 10
3842.910382064274
 20
-156.4205845777337
 30
0.0
 40
6.0
  1
個
 41
0.8
  7
STYLE2
100
AcDbText
  0
LWPOLYLINE
  5
5F9C
330
2
100
AcDbEntity
  8
構造
100
AcDbPolyline
 90
        4
 70
     1
 43
0.0
 10
4337.694284440322
 20
237.7757779252845
 10
4412.694284440322
 20
237.7757779252847
 10
4412.694284440321
 20
407.7757779252847
 10
4337.694284440322
 20
407.7757779252845
  0
LINE
  5
5F9D
330
2
100
AcDbEntity
  8
構造
100
AcDbLine
 10
4397.694284440322
 20
281.775777925285
 30
0.0
 11
4412.694284440322
 21
281.775777925285
 31
0.0
  0
LINE
  5
5F9E
330
2
100
AcDbEntity
  8
構造
100
AcDbLine
 10
4397.694284440322
 20
264.7757779252847
 30
0.0
 11
4412.694284440322
 21
264.7757779252847
 31
0.0
  0
LWPOLYLINE
  5
5F9F
330
2
100
AcDbEntity
  8
構造
  6
Continuous
100
AcDbPolyline
 90
        2
 70
     0
 43
0.0
 10
4397.694284440322
 20
297.7757779252847
 10
4337.694284440322
 20
291.7758979252844
  0
LWPOLYLINE
  5
5FA0
330
2
100
AcDbEntity
  8
構造
  6
Continuous
100
AcDbPolyline
 90
        2
 70
     0
 43
0.0
 10
4397.694284440321
 20
314.7757779252847
 10
4337.694284440322
 20
320.7758979252844
  0
LINE
  5
5FA1
330
2
100
AcDbEntity
  8
構造
  6
Continuous
100
AcDbLine
 10
4397.694284440321
 20
314.7757779252847
 30
0.0
 11
4397.694284440322
 21
297.7757779252847
 31
0.0
  0
LINE
  5
5FA2
330
2
100
AcDbEntity
  8
構造
100
AcDbLine
 10
4397.694284440321
 20
314.7757779252847
 30
0.0
 11
4412.694284440321
 21
314.7757779252847
 31
0.0
  0
LINE
  5
5FA3
330
2
100
AcDbEntity
  8
構造
100
AcDbLine
 10
4397.694284440322
 20
297.7757779252847
 30
0.0
 11
4412.694284440322
 21
297.7757779252847
 31
0.0
  0
LWPOLYLINE
  5
5FA4
330
2
100
AcDbEntity
  8
構造
  6
Continuous
100
AcDbPolyline
 90
        2
 70
     0
 43
0.0
 10
4397.694284440322
 20
330.7757779252847
 10
4337.694284440322
 20
324.7758979252847
  0
LWPOLYLINE
  5
5FA5
330
2
100
AcDbEntity
  8
構造
  6
Continuous
100
AcDbPolyline
 90
        2
 70
     0
 43
0.0
 10
4397.694284440322
 20
347.7757779252847
 10
4337.694284440322
 20
353.7758979252847
  0
LINE
  5
5FA6
330
2
100
AcDbEntity
  8
構造
  6
Continuous
100
AcDbLine
 10
4397.694284440322
 20
347.7757779252847
 30
0.0
 11
4397.694284440322
 21
330.7757779252847
 31
0.0
  0
LINE
  5
5FA7
330
2
100
AcDbEntity
  8
構造
100
AcDbLine
 10
4397.694284440322
 20
347.7757779252847
 30
0.0
 11
4412.694284440322
 21
347.7757779252847
 31
0.0
  0
LINE
  5
5FA8
330
2
100
AcDbEntity
  8
構造
100
AcDbLine
 10
4397.694284440322
 20
330.7757779252847
 30
0.0
 11
4412.694284440322
 21
330.7757779252845
 31
0.0
  0
LWPOLYLINE
  5
5FA9
330
2
100
AcDbEntity
  8
構造
  6
Continuous
100
AcDbPolyline
 90
        2
 70
     0
 43
0.0
 10
4397.694284440322
 20
363.7757779252845
 10
4337.694284440322
 20
357.7758979252844
  0
LWPOLYLINE
  5
5FAA
330
2
100
AcDbEntity
  8
構造
  6
Continuous
100
AcDbPolyline
 90
        2
 70
     0
 43
0.0
 10
4397.694284440322
 20
380.7757779252847
 10
4337.694284440322
 20
386.7758979252844
  0
LINE
  5
5FAB
330
2
100
AcDbEntity
  8
構造
  6
Continuous
100
AcDbLine
 10
4397.694284440322
 20
380.7757779252847
 30
0.0
 11
4397.694284440322
 21
363.7757779252845
 31
0.0
  0
LINE
  5
5FAC
330
2
100
AcDbEntity
  8
構造
100
AcDbLine
 10
4397.694284440322
 20
380.7757779252847
 30
0.0
 11
4412.694284440322
 21
380.7757779252847
 31
0.0
  0
LINE
  5
5FAD
330
2
100
AcDbEntity
  8
構造
100
AcDbLine
 10
4397.694284440322
 20
363.7757779252845
 30
0.0
 11
4412.694284440322
 21
363.7757779252845
 31
0.0
  0
LINE
  5
5FAE
330
2
100
AcDbEntity
  8
構造
  6
Continuous
100
AcDbLine
 10
4337.694284440322
 20
405.8809779252847
 30
0.0
 11
4339.589084440321
 21
407.7757779252847
 31
0.0
  0
LEADER
  5
5FAF
330
2
100
AcDbEntity
  8
文字
100
AcDbLeader
  3
STANDARD-3
 76
     2
 10
4285.271897999299
 20
-171.1525502108691
 30
0.0
 10
4262.978739539831
 20
-135.8723760949351
 30
0.0
  0
TEXT
  5
5FB0
330
2
100
AcDbEntity
  8
文字
100
AcDbText
 10
4208.104663342539
 20
-133.9973760949349
 30
0.0
 40
6.0
  1
スペーサー 2型
 41
0.8
  7
STYLE1
100
AcDbText
  0
TEXT
  5
5FB1
330
2
100
AcDbEntity
  8
文字
100
AcDbText
 10
4170.29476312812
 20
-245.6347049040537
 30
0.0
 40
6.0
  1
PC鋼より線 φ15.2
 41
0.8
  7
STYLE1
100
AcDbText
  0
LINE
  5
5FB2
330
2
100
AcDbEntity
  8
文字
100
AcDbLine
 10
4262.978739539831
 20
-135.8723760949351
 30
0.0
 11
4206.388549904008
 21
-135.8723760949351
 31
0.0
  0
LEADER
  5
5FB3
330
2
100
AcDbEntity
  8
文字
100
AcDbLeader
  3
STANDARD-3
 76
     3
 10
4258.981720126509
 20
-225.8596589451281
 30
0.0
 10
4230.397129827832
 20
-246.8149417235379
 30
0.0
 10
4167.673449733174
 20
-246.8149417235381
 30
0.0
211
-1.0
221
1.276756478318930E-15
231
0.0
  0
LINE
  5
5FB4
330
2
100
AcDbEntity
  8
寸法
  6
ByBlock
100
AcDbLine
 10
4295.778527805613
 20
-240.3389699930899
 30
0.0
 11
4379.362621849329
 21
-240.3389699930901
 31
0.0
  0
LINE
  5
5FB5
330
2
100
AcDbEntity
  8
寸法
  6
ByBlock
100
AcDbLine
 10
4295.778527805613
 20
-170.3389699930897
 30
0.0
 11
4379.362621849329
 21
-170.3389699930901
 31
0.0
  0
LINE
  5
5FB6
330
2
100
AcDbEntity
  8
寸法
  6
ByBlock
100
AcDbLine
 10
4375.612621849329
 20
-235.8389699930901
 30
0.0
 11
4375.61262184933
 21
-174.8389699930899
 31
0.0
  0
SOLID
  5
5FB7
330
2
100
AcDbEntity
  8
寸法
  6
ByBlock
100
AcDbTrace
 10
4374.862621849329
 20
-235.8389699930899
 30
0.0
 11
4376.362621849329
 21
-235.8389699930899
 31
0.0
 12
4375.612621849329
 22
-240.3389699930901
 32
0.0
 13
4375.612621849329
 23
-240.3389699930901
 33
0.0
  0
SOLID
  5
5FB8
330
2
100
AcDbEntity
  8
寸法
  6
ByBlock
100
AcDbTrace
 10
4374.86262184933
 20
-174.8389699930897
 30
0.0
 11
4376.36262184933
 21
-174.8389699930897
 31
0.0
 12
4375.612621849329
 22
-170.3389699930899
 32
0.0
 13
4375.612621849329
 23
-170.3389699930899
 33
0.0
  0
TEXT
  5
5FB9
330
2
100
AcDbEntity
  8
寸法
100
AcDbText
 10
4373.73762184933
 20
-210.1961128502328
 30
0.0
 40
6.0
  1
70
 50
90.0
 41
0.8
  7
STYLE1
100
AcDbText
  0
LINE
  5
5FBA
330
2
100
AcDbEntity
  8
寸法
  6
ByBlock
100
AcDbLine
 10
4307.981110691161
 20
-194.9432179712046
 30
0.0
 11
4279.825944920065
 21
-215.7347220149747
 31
0.0
  0
SOLID
  5
5FBB
330
2
100
AcDbEntity
  8
寸法
  6
ByBlock
100
AcDbTrace
 10
4283.000362575411
 20
-212.4582036571096
 30
0.0
 11
4283.89142703443
 21
-213.6648536187279
 31
0.0
 12
4279.825944920065
 22
-215.7347220149747
 32
0.0
 13
4279.825944920065
 23
-215.7347220149747
 33
0.0
  0
TEXT
  5
5FBC
330
2
100
AcDbEntity
  8
寸法
100
AcDbText
 10
4285.847125149156
 20
-209.9024008120664
 30
0.0
 40
6.0
  1
φ35
 50
36.44443782282197
 41
0.8
  7
STYLE1
100
AcDbText
  0
SOLID
  5
5FBD
330
2
100
AcDbEntity
  8
寸法
  6
ByBlock
100
AcDbTrace
 10
4303.928585553043
 20
-197.0383408804685
 30
0.0
 11
4304.827140287838
 21
-198.2394234707085
 31
0.0
 12
4307.981110691161
 22
-194.9432179712046
 32
0.0
 13
4307.981110691161
 23
-194.9432179712046
 33
0.0
  0
ARC
  5
5FBE
330
2
100
AcDbEntity
  8
JISSEN
 62
     0
100
AcDbCircle
 10
4293.903527805613
 20
-170.3389699930897
 30
0.0
 40
8.0
100
AcDbArc
 50
193.7390351743799
 51
346.2609648256201
  0
ARC
  5
5FBF
330
2
100
AcDbEntity
  8
JISSEN
 62
     0
100
AcDbCircle
 10
4293.903527805613
 20
-240.3389699930897
 30
0.0
 40
8.0
100
AcDbArc
 50
13.73903517437994
 51
166.2609648256201
  0
CIRCLE
  5
5FC0
330
2
100
AcDbEntity
  8
JISSEN
 62
     0
100
AcDbCircle
 10
4293.903527805613
 20
-205.3389699930899
 30
0.0
 40
17.5
  0
ARC
  5
5FC1
330
2
100
AcDbEntity
  8
JISSEN
 62
     0
100
AcDbCircle
 10
4276.403527805613
 20
-235.649859125527
 30
0.0
 40
8.0
100
AcDbArc
 50
343.7390351736653
 51
136.260964825361
  0
ARC
  5
5FC2
330
2
100
AcDbEntity
  8
JISSEN
 62
     0
100
AcDbCircle
 10
4276.403527805613
 20
-175.0280808606235
 30
0.0
 40
8.0
100
AcDbArc
 50
223.739035174639
 51
16.2609648263222
  0
ARC
  5
5FC3
330
2
100
AcDbEntity
  8
JISSEN
 62
     0
100
AcDbCircle
 10
4263.592638673117
 20
-222.8389699930899
 30
0.0
 40
8.0
100
AcDbArc
 50
313.7390351749153
 51
106.2609648256833
  0
ARC
  5
5FC4
330
2
100
AcDbEntity
  8
JISSEN
 62
     0
100
AcDbCircle
 10
4293.903527805613
 20
-205.3389699930899
 30
0.0
 40
34.0
100
AcDbArc
 50
223.2124121388727
 51
226.7875878620213
  0
ARC
  5
5FC5
330
2
100
AcDbEntity
  8
JISSEN
 62
     0
100
AcDbCircle
 10
4293.903527805613
 20
-205.3389699930899
 30
0.0
 40
34.0
100
AcDbArc
 50
253.2124121377474
 51
256.7875878604588
  0
ARC
  5
5FC6
330
2
100
AcDbEntity
  8
JISSEN
 62
     0
100
AcDbCircle
 10
4263.592638673117
 20
-187.8389699930901
 30
0.0
 40
8.0
100
AcDbArc
 50
253.7390351743167
 51
46.26096482508471
  0
ARC
  5
5FC7
330
2
100
AcDbEntity
  8
JISSEN
 62
     0
100
AcDbCircle
 10
4258.903527805613
 20
-205.3389699930897
 30
0.0
 40
8.0
100
AcDbArc
 50
283.7390351736564
 51
76.26096482631833
  0
ARC
  5
5FC8
330
2
100
AcDbEntity
  8
JISSEN
 62
     0
100
AcDbCircle
 10
4293.903527805613
 20
-205.3389699930899
 30
0.0
 40
34.0
100
AcDbArc
 50
163.2124121393009
 51
166.7875878613562
  0
ARC
  5
5FC9
330
2
100
AcDbEntity
  8
JISSEN
 62
     0
100
AcDbCircle
 10
4293.903527805613
 20
-205.3389699930899
 30
0.0
 40
34.0
100
AcDbArc
 50
193.2124121386565
 51
196.7875878606991
  0
ARC
  5
5FCA
330
2
100
AcDbEntity
  8
JISSEN
 62
     0
100
AcDbCircle
 10
4293.903527805613
 20
-205.3389699930899
 30
0.0
 40
34.0
100
AcDbArc
 50
133.2124121379788
 51
136.7875878611273
  0
ARC
  5
5FCB
330
2
100
AcDbEntity
  8
JISSEN
 62
     0
100
AcDbCircle
 10
4293.903527805613
 20
-205.3389699930899
 30
0.0
 40
34.0
100
AcDbArc
 50
103.2124121395412
 51
106.7875878622527
  0
ARC
  5
5FCC
330
2
100
AcDbEntity
  8
JISSEN
 62
     0
100
AcDbCircle
 10
4311.403527805613
 20
-175.0280808606235
 30
0.0
 40
8.0
100
AcDbArc
 50
163.7390351736653
 51
316.260964825361
  0
ARC
  5
5FCD
330
2
100
AcDbEntity
  8
JISSEN
 62
     0
100
AcDbCircle
 10
4311.403527805613
 20
-235.6498591255272
 30
0.0
 40
8.0
100
AcDbArc
 50
43.739035174639
 51
196.2609648263222
  0
ARC
  5
5FCE
330
2
100
AcDbEntity
  8
JISSEN
 62
     0
100
AcDbCircle
 10
4324.21441693805
 20
-222.8389699930897
 30
0.0
 40
8.0
100
AcDbArc
 50
73.73903517431667
 51
226.2609648250847
  0
ARC
  5
5FCF
330
2
100
AcDbEntity
  8
JISSEN
 62
     0
100
AcDbCircle
 10
4293.903527805613
 20
-205.3389699930899
 30
0.0
 40
34.0
100
AcDbArc
 50
283.2124121395412
 51
286.7875878622527
  0
ARC
  5
5FD0
330
2
100
AcDbEntity
  8
JISSEN
 62
     0
100
AcDbCircle
 10
4293.903527805613
 20
-205.3389699930899
 30
0.0
 40
34.0
100
AcDbArc
 50
313.2124121379787
 51
316.7875878611273
  0
ARC
  5
5FD1
330
2
100
AcDbEntity
  8
JISSEN
 62
     0
100
AcDbCircle
 10
4324.21441693805
 20
-187.8389699930899
 30
0.0
 40
8.0
100
AcDbArc
 50
133.7390351749153
 51
286.2609648256833
  0
ARC
  5
5FD2
330
2
100
AcDbEntity
  8
JISSEN
 62
     0
100
AcDbCircle
 10
4293.903527805613
 20
-205.3389699930899
 30
0.0
 40
34.0
100
AcDbArc
 50
13.21241213865651
 51
16.78758786069913
  0
ARC
  5
5FD3
330
2
100
AcDbEntity
  8
JISSEN
 62
     0
100
AcDbCircle
 10
4293.903527805613
 20
-205.3389699930899
 30
0.0
 40
34.0
100
AcDbArc
 50
343.2124121393009
 51
346.7875878613561
  0
ARC
  5
5FD4
330
2
100
AcDbEntity
  8
JISSEN
 62
     0
100
AcDbCircle
 10
4328.903527805613
 20
-205.3389699930899
 30
0.0
 40
8.0
100
AcDbArc
 50
103.7390351736563
 51
256.2609648263183
  0
ARC
  5
5FD5
330
2
100
AcDbEntity
  8
JISSEN
 62
     0
100
AcDbCircle
 10
4293.903527805613
 20
-205.3389699930899
 30
0.0
 40
34.0
100
AcDbArc
 50
43.21241213887274
 51
46.78758786202124
  0
ARC
  5
5FD6
330
2
100
AcDbEntity
  8
JISSEN
 62
     0
100
AcDbCircle
 10
4293.903527805613
 20
-205.3389699930899
 30
0.0
 40
34.0
100
AcDbArc
 50
73.21241213774734
 51
76.7875878604588
  0
CIRCLE
  5
5FD7
330
2
100
AcDbEntity
  8
JISSEN
 62
     0
100
AcDbCircle
 10
4293.903527805613
 20
-175.8056366597643
 30
0.0
 40
2.533333333333333
  0
CIRCLE
  5
5FD8
330
2
100
AcDbEntity
  8
JISSEN
 62
     0
100
AcDbCircle
 10
4293.903527805613
 20
-165.6723033264038
 30
0.0
 40
2.533333333333333
  0
CIRCLE
  5
5FD9
330
2
100
AcDbEntity
  8
JISSEN
 62
     0
100
AcDbCircle
 10
4293.903527805613
 20
-170.7389699930841
 30
0.0
 40
2.533333333333333
  0
CIRCLE
  5
5FDA
330
2
100
AcDbEntity
  8
JISSEN
 62
     0
100
AcDbCircle
 10
4289.515665759771
 20
-173.2723033264094
 30
0.0
 40
2.533333333333333
  0
CIRCLE
  5
5FDB
330
2
100
AcDbEntity
  8
JISSEN
 62
     0
100
AcDbCircle
 10
4289.515665759771
 20
-168.2056366597583
 30
0.0
 40
2.533333333333333
  0
CIRCLE
  5
5FDC
330
2
100
AcDbEntity
  8
JISSEN
 62
     0
100
AcDbCircle
 10
4298.291389851454
 20
-173.2723033264097
 30
0.0
 40
2.533333333333333
  0
CIRCLE
  5
5FDD
330
2
100
AcDbEntity
  8
JISSEN
 62
     0
100
AcDbCircle
 10
4298.291389851454
 20
-168.2056366597585
 30
0.0
 40
2.533333333333333
  0
CIRCLE
  5
5FDE
330
2
100
AcDbEntity
  8
JISSEN
 62
     0
100
AcDbCircle
 10
4308.670194472275
 20
-179.7623530679898
 30
0.0
 40
2.533333333333333
  0
CIRCLE
  5
5FDF
330
2
100
AcDbEntity
  8
JISSEN
 62
     0
100
AcDbCircle
 10
4313.736861138927
 20
-170.9866289763063
 30
0.0
 40
2.533333333333333
  0
CIRCLE
  5
5FE0
330
2
100
AcDbEntity
  8
JISSEN
 62
     0
100
AcDbCircle
 10
4311.203527805601
 20
-175.374491022148
 30
0.0
 40
2.533333333333333
  0
CIRCLE
  5
5FE1
330
2
100
AcDbEntity
  8
JISSEN
 62
     0
100
AcDbCircle
 10
4306.13686113895
 20
-175.374491022148
 30
0.0
 40
2.533333333333333
  0
CIRCLE
  5
5FE2
330
2
100
AcDbEntity
  8
JISSEN
 62
     0
100
AcDbCircle
 10
4308.670194472275
 20
-170.9866289763063
 30
0.0
 40
2.533333333333333
  0
CIRCLE
  5
5FE3
330
2
100
AcDbEntity
  8
JISSEN
 62
     0
100
AcDbCircle
 10
4313.736861138927
 20
-179.7623530679898
 30
0.0
 40
2.533333333333333
  0
CIRCLE
  5
5FE4
330
2
100
AcDbEntity
  8
JISSEN
 62
     0
100
AcDbCircle
 10
4316.270194472252
 20
-175.374491022148
 30
0.0
 40
2.533333333333333
  0
CIRCLE
  5
5FE5
330
2
100
AcDbEntity
  8
JISSEN
 62
     0
100
AcDbCircle
 10
4319.480144730684
 20
-190.5723033264271
 30
0.0
 40
2.533333333333333
  0
CIRCLE
  5
5FE6
330
2
100
AcDbEntity
  8
JISSEN
 62
     0
100
AcDbCircle
 10
4328.255868822367
 20
-185.5056366597466
 30
0.0
 40
2.533333333333333
  0
CIRCLE
  5
5FE7
330
2
100
AcDbEntity
  8
JISSEN
 62
     0
100
AcDbCircle
 10
4323.868006776525
 20
-188.0389699930724
 30
0.0
 40
2.533333333333333
  0
CIRCLE
  5
5FE8
330
2
100
AcDbEntity
  8
JISSEN
 62
     0
100
AcDbCircle
 10
4319.480144730684
 20
-185.5056366597469
 30
0.0
 40
2.533333333333333
  0
CIRCLE
  5
5FE9
330
2
100
AcDbEntity
  8
JISSEN
 62
     0
100
AcDbCircle
 10
4323.868006776525
 20
-182.9723033264213
 30
0.0
 40
2.533333333333333
  0
CIRCLE
  5
5FEA
330
2
100
AcDbEntity
  8
JISSEN
 62
     0
100
AcDbCircle
 10
4323.868006776525
 20
-193.1056366597527
 30
0.0
 40
2.533333333333333
  0
CIRCLE
  5
5FEB
330
2
100
AcDbEntity
  8
JISSEN
 62
     0
100
AcDbCircle
 10
4328.255868822367
 20
-190.5723033264269
 30
0.0
 40
2.533333333333333
  0
CIRCLE
  5
5FEC
330
2
100
AcDbEntity
  8
JISSEN
 62
     0
100
AcDbCircle
 10
4319.480144730684
 20
-220.1056366597527
 30
0.0
 40
2.533333333333333
  0
CIRCLE
  5
5FED
330
2
100
AcDbEntity
  8
JISSEN
 62
     0
100
AcDbCircle
 10
4328.255868822367
 20
-225.1723033264036
 30
0.0
 40
2.533333333333333
  0
CIRCLE
  5
5FEE
330
2
100
AcDbEntity
  8
JISSEN
 62
     0
100
AcDbCircle
 10
4323.868006776525
 20
-222.6389699930783
 30
0.0
 40
2.533333333333333
  0
CIRCLE
  5
5FEF
330
2
100
AcDbEntity
  8
JISSEN
 62
     0
100
AcDbCircle
 10
4323.868006776525
 20
-217.5723033264271
 30
0.0
 40
2.533333333333333
  0
CIRCLE
  5
5FF0
330
2
100
AcDbEntity
  8
JISSEN
 62
     0
100
AcDbCircle
 10
4328.255868822367
 20
-220.1056366597525
 30
0.0
 40
2.533333333333333
  0
CIRCLE
  5
5FF1
330
2
100
AcDbEntity
  8
JISSEN
 62
     0
100
AcDbCircle
 10
4319.480144730684
 20
-225.1723033264038
 30
0.0
 40
2.533333333333333
  0
CIRCLE
  5
5FF2
330
2
100
AcDbEntity
  8
JISSEN
 62
     0
100
AcDbCircle
 10
4323.868006776525
 20
-227.7056366597585
 30
0.0
 40
2.533333333333333
  0
CIRCLE
  5
5FF3
330
2
100
AcDbEntity
  8
JISSEN
 62
     0
100
AcDbCircle
 10
4308.670194472275
 20
-230.91558691819
 30
0.0
 40
2.533333333333333
  0
CIRCLE
  5
5FF4
330
2
100
AcDbEntity
  8
JISSEN
 62
     0
100
AcDbCircle
 10
4313.736861138927
 20
-230.9155869181898
 30
0.0
 40
2.533333333333333
  0
CIRCLE
  5
5FF5
330
2
100
AcDbEntity
  8
JISSEN
 62
     0
100
AcDbCircle
 10
4306.13686113895
 20
-235.3034489640318
 30
0.0
 40
2.533333333333333
  0
CIRCLE
  5
5FF6
330
2
100
AcDbEntity
  8
JISSEN
 62
     0
100
AcDbCircle
 10
4316.270194472252
 20
-235.3034489640318
 30
0.0
 40
2.533333333333333
  0
CIRCLE
  5
5FF7
330
2
100
AcDbEntity
  8
JISSEN
 62
     0
100
AcDbCircle
 10
4311.203527805601
 20
-235.3034489640318
 30
0.0
 40
2.533333333333333
  0
CIRCLE
  5
5FF8
330
2
100
AcDbEntity
  8
JISSEN
 62
     0
100
AcDbCircle
 10
4313.736861138927
 20
-239.6913110098733
 30
0.0
 40
2.533333333333333
  0
CIRCLE
  5
5FF9
330
2
100
AcDbEntity
  8
JISSEN
 62
     0
100
AcDbCircle
 10
4308.670194472275
 20
-239.6913110098733
 30
0.0
 40
2.533333333333333
  0
CIRCLE
  5
5FFA
330
2
100
AcDbEntity
  8
JISSEN
 62
     0
100
AcDbCircle
 10
4279.13686113895
 20
-230.9155869181898
 30
0.0
 40
2.533333333333333
  0
CIRCLE
  5
5FFB
330
2
100
AcDbEntity
  8
JISSEN
 62
     0
100
AcDbCircle
 10
4274.07019447224
 20
-239.6913110098733
 30
0.0
 40
2.533333333333333
  0
CIRCLE
  5
5FFC
330
2
100
AcDbEntity
  8
JISSEN
 62
     0
100
AcDbCircle
 10
4276.603527805624
 20
-235.3034489640318
 30
0.0
 40
2.533333333333333
  0
CIRCLE
  5
5FFD
330
2
100
AcDbEntity
  8
JISSEN
 62
     0
100
AcDbCircle
 10
4281.670194472275
 20
-235.3034489640318
 30
0.0
 40
2.533333333333333
  0
CIRCLE
  5
5FFE
330
2
100
AcDbEntity
  8
JISSEN
 62
     0
100
AcDbCircle
 10
4279.13686113895
 20
-239.6913110098733
 30
0.0
 40
2.533333333333333
  0
CIRCLE
  5
5FFF
330
2
100
AcDbEntity
  8
JISSEN
 62
     0
100
AcDbCircle
 10
4274.07019447224
 20
-230.9155869181898
 30
0.0
 40
2.533333333333333
  0
CIRCLE
  5
6000
330
2
100
AcDbEntity
  8
JISSEN
 62
     0
100
AcDbCircle
 10
4271.536861138915
 20
-235.3034489640318
 30
0.0
 40
2.533333333333333
  0
CIRCLE
  5
6001
330
2
100
AcDbEntity
  8
JISSEN
 62
     0
100
AcDbCircle
 10
4268.326910880483
 20
-220.1056366597525
 30
0.0
 40
2.533333333333333
  0
CIRCLE
  5
6002
330
2
100
AcDbEntity
  8
JISSEN
 62
     0
100
AcDbCircle
 10
4259.5511867888
 20
-225.1723033264038
 30
0.0
 40
2.533333333333333
  0
CIRCLE
  5
6003
330
2
100
AcDbEntity
  8
JISSEN
 62
     0
100
AcDbCircle
 10
4263.939048834642
 20
-222.6389699930783
 30
0.0
 40
2.533333333333333
  0
CIRCLE
  5
6004
330
2
100
AcDbEntity
  8
JISSEN
 62
     0
100
AcDbCircle
 10
4268.326910880483
 20
-225.1723033264036
 30
0.0
 40
2.533333333333333
  0
CIRCLE
  5
6005
330
2
100
AcDbEntity
  8
JISSEN
 62
     0
100
AcDbCircle
 10
4263.939048834642
 20
-227.7056366597585
 30
0.0
 40
2.533333333333333
  0
CIRCLE
  5
6006
330
2
100
AcDbEntity
  8
JISSEN
 62
     0
100
AcDbCircle
 10
4263.939048834642
 20
-217.5723033264271
 30
0.0
 40
2.533333333333333
  0
CIRCLE
  5
6007
330
2
100
AcDbEntity
  8
JISSEN
 62
     0
100
AcDbCircle
 10
4259.5511867888
 20
-220.1056366597527
 30
0.0
 40
2.533333333333333
  0
CIRCLE
  5
6008
330
2
100
AcDbEntity
  8
JISSEN
 62
     0
100
AcDbCircle
 10
4268.326910880483
 20
-190.5723033264269
 30
0.0
 40
2.533333333333333
  0
CIRCLE
  5
6009
330
2
100
AcDbEntity
  8
JISSEN
 62
     0
100
AcDbCircle
 10
4259.5511867888
 20
-185.5056366597469
 30
0.0
 40
2.533333333333333
  0
CIRCLE
  5
600A
330
2
100
AcDbEntity
  8
JISSEN
 62
     0
100
AcDbCircle
 10
4263.939048834642
 20
-188.0389699930724
 30
0.0
 40
2.533333333333333
  0
CIRCLE
  5
600B
330
2
100
AcDbEntity
  8
JISSEN
 62
     0
100
AcDbCircle
 10
4263.939048834642
 20
-193.1056366597527
 30
0.0
 40
2.533333333333333
  0
CIRCLE
  5
600C
330
2
100
AcDbEntity
  8
JISSEN
 62
     0
100
AcDbCircle
 10
4259.5511867888
 20
-190.5723033264271
 30
0.0
 40
2.533333333333333
  0
CIRCLE
  5
600D
330
2
100
AcDbEntity
  8
JISSEN
 62
     0
100
AcDbCircle
 10
4268.326910880483
 20
-185.5056366597466
 30
0.0
 40
2.533333333333333
  0
CIRCLE
  5
600E
330
2
100
AcDbEntity
  8
JISSEN
 62
     0
100
AcDbCircle
 10
4263.939048834642
 20
-182.9723033264213
 30
0.0
 40
2.533333333333333
  0
CIRCLE
  5
600F
330
2
100
AcDbEntity
  8
JISSEN
 62
     0
100
AcDbCircle
 10
4279.13686113895
 20
-179.7623530679898
 30
0.0
 40
2.533333333333333
  0
CIRCLE
  5
6010
330
2
100
AcDbEntity
  8
JISSEN
 62
     0
100
AcDbCircle
 10
4274.07019447224
 20
-170.9866289763063
 30
0.0
 40
2.533333333333333
  0
CIRCLE
  5
6011
330
2
100
AcDbEntity
  8
JISSEN
 62
     0
100
AcDbCircle
 10
4276.603527805624
 20
-175.374491022148
 30
0.0
 40
2.533333333333333
  0
CIRCLE
  5
6012
330
2
100
AcDbEntity
  8
JISSEN
 62
     0
100
AcDbCircle
 10
4274.07019447224
 20
-179.7623530679898
 30
0.0
 40
2.533333333333333
  0
CIRCLE
  5
6013
330
2
100
AcDbEntity
  8
JISSEN
 62
     0
100
AcDbCircle
 10
4271.536861138915
 20
-175.374491022148
 30
0.0
 40
2.533333333333333
  0
CIRCLE
  5
6014
330
2
100
AcDbEntity
  8
JISSEN
 62
     0
100
AcDbCircle
 10
4281.670194472275
 20
-175.374491022148
 30
0.0
 40
2.533333333333333
  0
CIRCLE
  5
6015
330
2
100
AcDbEntity
  8
JISSEN
 62
     0
100
AcDbCircle
 10
4279.13686113895
 20
-170.9866289763063
 30
0.0
 40
2.533333333333333
  0
LINE
  5
6016
330
2
100
AcDbEntity
  8
寸法
  6
ByBlock
100
AcDbLine
 10
4295.778527805613
 20
-272.7401162062704
 30
0.0
 11
4420.42794098277
 21
-272.7401162062708
 31
0.0
  0
LINE
  5
6017
330
2
100
AcDbEntity
  8
寸法
  6
ByBlock
100
AcDbLine
 10
4295.778527805613
 20
-137.7401162062704
 30
0.0
 11
4420.42794098277
 21
-137.7401162062706
 31
0.0
  0
LINE
  5
6018
330
2
100
AcDbEntity
  8
寸法
  6
ByBlock
100
AcDbLine
 10
4416.67794098277
 20
-272.7401162062706
 30
0.0
 11
4416.67794098277
 21
-142.2401162062706
 31
0.0
  0
SOLID
  5
6019
330
2
100
AcDbEntity
  8
寸法
  6
ByBlock
100
AcDbTrace
 10
4415.92794098277
 20
-268.2401162062713
 30
0.0
 11
4417.42794098277
 21
-268.2401162062713
 31
0.0
 12
4416.67794098277
 22
-272.7401162062706
 32
0.0
 13
4416.67794098277
 23
-272.7401162062706
 33
0.0
  0
SOLID
  5
601A
330
2
100
AcDbEntity
  8
寸法
  6
ByBlock
100
AcDbTrace
 10
4415.92794098277
 20
-142.2401162062711
 30
0.0
 11
4417.42794098277
 21
-142.2401162062708
 31
0.0
 12
4416.67794098277
 22
-137.7401162062706
 32
0.0
 13
4416.67794098277
 23
-137.7401162062706
 33
0.0
  0
TEXT
  5
601B
330
2
100
AcDbEntity
  8
寸法
100
AcDbText
 10
4414.80294098277
 20
-218.7645152114183
 30
0.0
 40
6.0
  1
削孔径φ
 50
90.0
 41
0.9
  7
STYLE1
100
AcDbText
  0
CIRCLE
  5
601C
330
2
100
AcDbEntity
  8
構造
100
AcDbCircle
 10
4293.903527805613
 20
-205.2401162062704
 30
0.0
 40
67.5
  0
LINE
  5
601D
330
2
100
AcDbEntity
  8
中心線
100
AcDbLine
 10
4218.903527805613
 20
-205.3389699930897
 30
0.0
 11
4368.903527805613
 21
-205.3389699930897
 31
0.0
  0
LINE
  5
601E
330
2
100
AcDbEntity
  8
中心線
100
AcDbLine
 10
4293.903527805613
 20
-280.3389699930899
 30
0.0
 11
4293.903527805614
 21
-130.3389699930899
 31
0.0
  0
TEXT
  5
6070
330
2
100
AcDbEntity
  8
TITLE
100
AcDbText
 10
4265.319470279562
 20
-106.6667819319796
 30
0.0
 40
8.0
  1
B-B断面図　　S=1/3
 41
0.8
  7
STYLE1
100
AcDbText
  0
LINE
  5
6071
330
2
100
AcDbEntity
  8
TITLE
100
AcDbLine
 10
4257.406084653139
 20
-108.9237354949387
 30
0.0
 11
4354.776518868313
 21
-108.9237354949678
 31
0.0
  0
TEXT
  5
6072
330
2
100
AcDbEntity
  8
TITLE
100
AcDbText
 10
4010.367843585819
 20
-106.6667819319791
 30
0.0
 40
8.0
  1
A-A断面図　　S=1/3
 41
0.8
  7
STYLE1
100
AcDbText
  0
LINE
  5
6073
330
2
100
AcDbEntity
  8
TITLE
100
AcDbLine
 10
4008.139853862175
 20
-108.9237354949387
 30
0.0
 11
4098.18920758172
 21
-108.9237354949387
 31
0.0
  0
TEXT
  5
6076
330
2
100
AcDbEntity
  8
文字
100
AcDbText
 10
4491.931892777922
 20
-22.86308471463326
 30
0.0
 40
6.0
  1
スペーサー
 50
329.999999999938
 41
0.8
  7
STYLE1
100
AcDbText
  0
SOLID
  5
6077
330
2
100
AcDbEntity
  8
文字
100
AcDbTrace
 10
4447.010850118399
 20
-42.90023164428453
 30
0.0
 11
4442.555862024207
 21
-43.88287149713756
 31
0.0
 12
4446.451345944791
 22
-41.50848630848373
 32
0.0
 13
4446.451345944791
 23
-41.50848630848373
 33
0.0
  0
LINE
  5
6078
330
2
100
AcDbEntity
  8
文字
100
AcDbLine
 10
4446.731098031609
 20
-42.20435897639936
 30
0.0
 11
4491.254688533007
 21
-23.91742167313964
 31
0.0
  0
LINE
  5
6079
330
2
100
AcDbEntity
  8
文字
100
AcDbLine
 10
4491.254688533007
 20
-23.91742167313964
 30
0.0
 11
4524.199811615121
 21
-42.93829735307986
 31
0.0
  0
TEXT
  5
607A
330
2
100
AcDbEntity
  8
文字
100
AcDbText
 10
4535.573846576752
 20
-48.05977848834868
 30
0.0
 40
6.0
  1
スチールリング
 50
329.999999999938
 41
0.8
  7
STYLE1
100
AcDbText
  0
SOLID
  5
607B
330
2
100
AcDbEntity
  8
文字
100
AcDbTrace
 10
4485.249267297674
 20
-64.71647550265857
 30
0.0
 11
4480.632823291851
 21
-65.33112539213789
 31
0.0
 12
4484.528307212435
 22
-62.95674020348406
 32
0.0
 13
4484.528307212435
 23
-62.95674020348406
 33
0.0
  0
LINE
  5
607C
330
2
100
AcDbEntity
  8
文字
100
AcDbLine
 10
4480.632823291851
 20
-65.33112539213789
 30
0.0
 11
4534.896642331836
 21
-49.11411544685507
 31
0.0
  0
LINE
  5
607D
330
2
100
AcDbEntity
  8
文字
100
AcDbLine
 10
4534.896642331836
 20
-49.11411544685507
 30
0.0
 11
4576.567833811407
 21
-73.17298906503402
 31
0.0
  0
TEXT
  5
607E
330
2
100
AcDbEntity
  8
文字
100
AcDbText
 10
4541.972500096799
 20
-73.16208156216112
 30
0.0
 40
6.0
  1
パイロットキャップ
 50
329.999999999938
 41
0.8
  7
STYLE1
100
AcDbText
  0
LINE
  5
607F
330
2
100
AcDbEntity
  8
文字
100
AcDbLine
 10
4516.076766585354
 20
-86.8075743824736
 30
0.0
 11
4541.295295851884
 21
-74.21641852066773
 31
0.0
  0
LINE
  5
6080
330
2
100
AcDbEntity
  8
文字
100
AcDbLine
 10
4541.295295851884
 20
-74.21641852066773
 30
0.0
 11
4594.839110834135
 21
-105.1299545141042
 31
0.0
  0
SOLID
  5
6081
330
2
100
AcDbEntity
  8
文字
100
AcDbTrace
 10
4520.531754679545
 20
-85.82493452962058
 30
0.0
 11
4516.076766585354
 21
-86.8075743824736
 31
0.0
 12
4519.972250505936
 22
-84.43318919381977
 32
0.0
 13
4519.972250505936
 23
-84.43318919381977
 33
0.0
  0
LINE
  5
6082
330
2
100
AcDbEntity
  8
文字
  6
ByBlock
100
AcDbLine
 10
4524.634202302672
 20
-112.326787668942
 30
0.0
 11
4507.824559865125
 21
-141.4419424279401
 31
0.0
  0
LINE
  5
6083
330
2
100
AcDbEntity
  8
文字
  6
ByBlock
100
AcDbLine
 10
4534.396602285693
 20
-117.9631119270762
 30
0.0
 11
4517.586959848144
 21
-147.0782666860739
 31
0.0
  0
LINE
  5
6084
330
2
100
AcDbEntity
  8
文字
  6
ByBlock
100
AcDbLine
 10
4481.888860291865
 20
-117.9091888510595
 30
0.0
 11
4511.530616181148
 21
-135.0228645929908
 31
0.0
  0
SOLID
  5
6085
330
2
100
AcDbEntity
  8
文字
  6
ByBlock
100
AcDbTrace
 10
4482.263860291894
 20
-117.2596697982378
 30
0.0
 11
4481.513860291894
 21
-118.5587079039105
 31
0.0
 12
4477.991745974874
 22
-115.6591888510886
 32
0.0
 13
4477.991745974874
 23
-115.6591888510886
 33
0.0
  0
SOLID
  5
6086
330
2
100
AcDbEntity
  8
文字
  6
ByBlock
100
AcDbTrace
 10
4508.008501864033
 20
-132.1233455401446
 30
0.0
 11
4507.258501864062
 21
-133.4223836457886
 31
0.0
 12
4511.530616181082
 22
-135.0228645929667
 32
0.0
 13
4511.530616181082
 23
-135.0228645929667
 33
0.0
  0
TEXT
  5
6087
330
2
100
AcDbEntity
  8
文字
100
AcDbText
 10
4484.156896949347
 20
-117.0535769163516
 30
0.0
 40
6.0
  1
先端余長
 50
329.999999999938
 41
0.8
  7
STYLE1
100
AcDbText
  0
LINE
  5
6088
330
2
100
AcDbEntity
  8
文字
  6
ByBlock
100
AcDbLine
 10
4515.427730498159
 20
-137.2728645929699
 30
0.0
 11
4551.069105857548
 21
-157.8504222510026
 31
0.0
  0
SOLID
  5
6089
330
2
100
AcDbEntity
  8
文字
  6
ByBlock
100
AcDbTrace
 10
4515.802730498188
 20
-136.6233455401477
 30
0.0
 11
4515.052730498188
 21
-137.9223836458211
 31
0.0
 12
4511.530616181168
 22
-135.0228645929992
 32
0.0
 13
4511.530616181168
 23
-135.0228645929992
 33
0.0
  0
SOLID
  5
608A
330
2
100
AcDbEntity
  8
文字
  6
ByBlock
100
AcDbTrace
 10
4517.770901847
 20
-137.7596697982362
 30
0.0
 11
4517.020901847029
 21
-139.0587079038808
 31
0.0
 12
4521.293016164049
 22
-140.6591888510584
 32
0.0
 13
4521.293016164049
 23
-140.6591888510584
 33
0.0
  0
TEXT
  5
608B
330
2
100
AcDbEntity
  8
文字
100
AcDbText
 10
4526.387718313257
 20
-141.435552998895
 30
0.0
 40
6.0
  1
削孔余長
 50
329.999999999938
 41
0.8
  7
STYLE1
100
AcDbText
  0
LINE
  5
608C
330
2
100
AcDbEntity
  8
構造
100
AcDbLine
 10
3755.787018173113
 20
342.970008870433
 30
0.0
 11
3700.40429721584
 21
374.9452377235689
 31
0.0
  0
LINE
  5
608D
330
2
100
AcDbEntity
  8
構造
100
AcDbLine
 10
3749.778814942865
 20
348.5634956133856
 30
0.0
 11
3701.324297215842
 21
376.538724466536
 31
0.0
  0
LINE
  5
608E
330
2
100
AcDbEntity
  8
構造
100
AcDbLine
 10
3751.438814942868
 20
351.4386999539695
 30
0.0
 11
3702.984297215851
 21
379.4139288071167
 31
0.0
  0
LINE
  5
608F
330
2
100
AcDbEntity
  8
構造
100
AcDbLine
 10
3759.287018173112
 20
349.0321866969389
 30
0.0
 11
3703.904297215877
 21
381.0074155501247
 31
0.0
  0
LINE
  5
6090
330
2
100
AcDbEntity
  8
構造
100
AcDbLine
 10
3703.904297215877
 20
381.0074155501247
 30
0.0
 11
3702.984297215851
 21
379.4139288071167
 31
0.0
  0
LINE
  5
6091
330
2
100
AcDbEntity
  8
構造
100
AcDbLine
 10
3701.324297215842
 20
376.538724466536
 30
0.0
 11
3700.40429721584
 21
374.9452377235689
 31
0.0
  0
LINE
  5
6092
330
2
100
AcDbEntity
  8
文字
  6
ByBlock
100
AcDbLine
 10
3700.404297215784
 20
374.9452377236016
 30
0.0
 11
3678.657154778243
 21
337.2780821022161
 31
0.0
  0
LINE
  5
6093
330
2
100
AcDbEntity
  8
文字
  6
ByBlock
100
AcDbLine
 10
3682.363211094214
 20
343.6971599371893
 30
0.0
 11
3748.13823689686
 21
305.7219310840878
 31
0.0
  0
SOLID
  5
6094
330
2
100
AcDbEntity
  8
文字
  6
ByBlock
100
AcDbTrace
 10
3686.635325411234
 20
342.0966789900406
 30
0.0
 11
3685.885325411234
 21
340.7976408843672
 31
0.0
 12
3682.363211094214
 22
343.6971599371893
 32
0.0
 13
3682.363211094214
 23
343.6971599371893
 33
0.0
  0
SOLID
  5
6095
330
2
100
AcDbEntity
  8
文字
  6
ByBlock
100
AcDbTrace
 10
3744.616122579822
 20
308.6214501369004
 30
0.0
 11
3743.866122579851
 21
307.3224120312564
 31
0.0
 12
3748.138236896872
 22
305.7219310840787
 32
0.0
 13
3748.138236896872
 23
305.7219310840787
 33
0.0
  0
TEXT
  5
6096
330
2
100
AcDbEntity
  8
文字
100
AcDbText
 10
3698.109841642531
 20
336.7709020607331
 30
0.0
 40
6.0
  1
緊張余長
 50
329.999999999938
 41
0.8
  7
STYLE1
100
AcDbText
  0
TEXT
  5
6097
330
2
100
AcDbEntity
  8
枠
100
AcDbText
 10
4547.657616510962
 20
-333.0025159416371
 30
0.0
 40
4.556249999999999
  1
2012.02.20
  7
KKZ-Y
 72
     1
 11
4564.743554010962
 21
-333.6100159416371
 31
0.0
100
AcDbText
 73
     1
  0
LINE
  5
6098
330
2
100
AcDbEntity
  8
文字
100
AcDbLine
 10
4314.896273520114
 20
45.1598055902748
 30
0.0
 11
4321.613171053809
 21
56.79381338786834
 31
0.0
  0
LINE
  5
6099
330
2
100
AcDbEntity
  8
文字
  6
ByBlock
100
AcDbLine
 10
4516.630467761489
 20
-48.73495957710156
 30
0.0
 11
4504.774301062172
 21
-69.27044268332384
 31
0.0
  0
LINE
  5
609A
330
2
100
AcDbEntity
  8
文字
  6
ByBlock
100
AcDbLine
 10
4458.279188541855
 20
-15.04583281208738
 30
0.0
 11
4446.423021842539
 21
-35.58131591830943
 31
0.0
  0
LINE
  5
609B
330
2
100
AcDbEntity
  8
文字
  6
ByBlock
100
AcDbLine
 10
4324.672196121796
 20
62.09220022725003
 30
0.0
 11
4312.816029422481
 21
41.55671712102776
 31
0.0
  0
LINE
  5
609C
330
2
100
AcDbEntity
  8
文字
  6
ByBlock
100
AcDbLine
 10
4452.163605192191
 20
-25.6383338916271
 30
0.0
 11
4510.514884411791
 21
-59.32746065661695
 31
0.0
  0
SOLID
  5
609D
330
2
100
AcDbEntity
  8
文字
  6
ByBlock
100
AcDbTrace
 10
4456.435719509212
 20
-27.23881483877631
 30
0.0
 11
4455.685719509212
 21
-28.53785294444924
 31
0.0
 12
4452.163605192191
 22
-25.6383338916271
 32
0.0
 13
4452.163605192191
 23
-25.6383338916271
 33
0.0
  0
SOLID
  5
609E
330
2
100
AcDbEntity
  8
文字
  6
ByBlock
100
AcDbTrace
 10
4506.992770094678
 20
-56.42794160377071
 30
0.0
 11
4506.242770094707
 21
-57.72697970941499
 31
0.0
 12
4510.514884411728
 22
-59.32746065659285
 32
0.0
 13
4510.514884411728
 23
-59.32746065659285
 33
0.0
  0
TEXT
  5
609F
330
2
100
AcDbEntity
  8
文字
100
AcDbText
 10
4475.34474411664
 20
-36.85690718033629
 30
0.0
 40
6.0
  1
0.5m
 50
329.9999999999338
 41
0.8
  7
STYLE1
100
AcDbText
  0
LINE
  5
60A0
330
2
100
AcDbEntity
  8
文字
  6
ByBlock
100
AcDbLine
 10
4318.556612772133
 20
51.49969914771009
 30
0.0
 11
4452.163605192028
 21
-25.63833389152705
 31
0.0
  0
SOLID
  5
60A1
330
2
100
AcDbEntity
  8
文字
  6
ByBlock
100
AcDbTrace
 10
4322.828727089153
 20
49.89921820056111
 30
0.0
 11
4322.078727089153
 21
48.60018009488795
 31
0.0
 12
4318.556612772133
 22
51.49969914771009
 32
0.0
 13
4318.556612772133
 23
51.49969914771009
 33
0.0
  0
SOLID
  5
60A2
330
2
100
AcDbEntity
  8
文字
  6
ByBlock
100
AcDbTrace
 10
4448.641490874913
 20
-22.73881483868081
 30
0.0
 11
4447.891490874942
 21
-24.0378529443251
 31
0.0
 12
4452.163605191962
 22
-25.63833389150295
 32
0.0
 13
4452.163605191962
 23
-25.63833389150295
 33
0.0
  0
TEXT
  5
60A3
330
2
100
AcDbEntity
  8
文字
100
AcDbText
 10
4385.387293548464
 20
15.08005112081264
 30
0.0
 40
6.0
  1
1mピッチ
 50
329.9999999999338
 41
0.8
  7
STYLE1
100
AcDbText
  0
LINE
  5
60A4
330
2
100
AcDbEntity
  8
文字
  6
ByBlock
100
AcDbLine
 10
4260.205333552512
 20
85.18882591274632
 30
0.0
 11
4318.556612772113
 21
51.49969914775647
 31
0.0
  0
SOLID
  5
60A5
330
2
100
AcDbEntity
  8
文字
  6
ByBlock
100
AcDbTrace
 10
4264.477447869532
 20
83.58834496559734
 30
0.0
 11
4263.727447869532
 21
82.28930685992418
 31
0.0
 12
4260.205333552512
 22
85.18882591274632
 32
0.0
 13
4260.205333552512
 23
85.18882591274632
 33
0.0
  0
SOLID
  5
60A6
330
2
100
AcDbEntity
  8
文字
  6
ByBlock
100
AcDbTrace
 10
4315.034498454998
 20
54.39921820060249
 30
0.0
 11
4314.284498455027
 21
53.10018009495843
 31
0.0
 12
4318.556612772048
 22
51.49969914778058
 32
0.0
 13
4318.556612772048
 23
51.49969914778058
 33
0.0
  0
TEXT
  5
60A7
330
2
100
AcDbEntity
  8
文字
100
AcDbText
 10
4283.38647247696
 20
73.97025262403736
 30
0.0
 40
6.0
  1
0.5m
 50
329.9999999999338
 41
0.8
  7
STYLE1
100
AcDbText
  0
LINE
  5
60A8
330
2
100
AcDbEntity
  8
文字
  6
ByBlock
100
AcDbLine
 10
4266.13341690217
 20
95.45656746585746
 30
0.0
 11
4254.277250202854
 21
74.92108435963519
 31
0.0
  0
LINE
  5
60A9
330
2
100
AcDbEntity
  8
文字
 62
     4
100
AcDbLine
 10
3640.096311857973
 20
5.048136622323
 30
0.0
 11
3724.265445918075
 21
5.048136622323
 31
0.0
  0
LINE
  5
60AA
330
2
100
AcDbEntity
  8
文字
 62
     4
100
AcDbLine
 10
3724.265445918075
 20
5.048136622323
 30
0.0
 11
3724.265445918075
 21
-34.95186337767723
 31
0.0
  0
LINE
  5
60AB
330
2
100
AcDbEntity
  8
文字
 62
     4
100
AcDbLine
 10
3640.096311857973
 20
-14.951863377677
 30
0.0
 11
3724.265445918075
 21
-14.95186337767723
 31
0.0
  0
LINE
  5
60AC
330
2
100
AcDbEntity
  8
文字
 62
     4
100
AcDbLine
 10
3640.096311857973
 20
-34.951863377677
 30
0.0
 11
3724.265445918075
 21
-34.95186337767723
 31
0.0
  0
TEXT
  5
60AD
330
2
100
AcDbEntity
  8
文字
 62
     4
100
AcDbText
 10
3651.47360187239
 20
-8.92227712868953
 30
0.0
 40
7.0
  1
外 径
 41
0.8
  7
STYLE1
100
AcDbText
  0
LINE
  5
60AE
330
2
100
AcDbEntity
  8
文字
 62
     4
100
AcDbLine
 10
3682.180878888023
 20
-34.951863377677
 30
0.0
 11
3682.180878888024
 21
5.048136622323
 31
0.0
  0
TEXT
  5
60AF
330
2
100
AcDbEntity
  8
文字
 62
     4
100
AcDbText
 10
3693.369693155016
 20
-8.92227712868953
 30
0.0
 40
7.0
  1
内 径
 41
0.8
  7
STYLE1
100
AcDbText
  0
TEXT
  5
60B0
330
2
100
AcDbEntity
  8
TITLE
100
AcDbText
 10
3635.694683824282
 20
26.82511218945001
 30
0.0
 40
8.0
  1
ポリエチレンシース径
 41
0.8
  7
STYLE1
100
AcDbText
  0
LINE
  5
60B1
330
2
100
AcDbEntity
  8
TITLE
100
AcDbLine
 10
3629.501109156753
 20
22.76990382123608
 30
0.0
 11
3734.860648619294
 21
22.76990382123586
 31
0.0
  0
LINE
  5
60B2
330
2
100
AcDbEntity
  8
文字
 62
     4
100
AcDbLine
 10
3640.096311857973
 20
5.048136622323
 30
0.0
 11
3640.096311857972
 21
-34.951863377677
 31
0.0
  0
TEXT
  5
60B5
330
2
100
AcDbEntity
  8
TITLE
  6
Continuous
100
AcDbText
 10
3904.607847164487
 20
473.2921627747091
 30
0.0
 40
19.5
  1
VSL残置式アンカー（塗布タイプ）(E6-10)注入パイプ無し
 41
0.8
  7
STYLE1
 72
     1
 11
4201.275275735916
 21
473.2921627747091
 31
0.0
100
AcDbText
  0
LINE
  5
60B6
330
2
100
AcDbEntity
  8
TITLE
  6
Continuous
100
AcDbLine
 10
3905.282163116114
 20
468.6591087960346
 30
0.0
 11
4493.705482496445
 21
468.6591087960346
 31
0.0
  0
TEXT
  5
60B7
330
2
100
AcDbEntity
  8
文字
 62
     4
100
AcDbText
 10
3658.337427882862
 20
-28.44822651012828
 30
0.0
 40
7.0
  1
76
 41
0.8
  7
STYLE1
100
AcDbText
  0
TEXT
  5
60B8
330
2
100
AcDbEntity
  8
文字
 62
     4
100
AcDbText
 10
3700.421994912914
 20
-28.44822651012828
 30
0.0
 40
7.0
  1
66
 41
0.8
  7
STYLE1
100
AcDbText
  0
TEXT
  5
6136
330
2
100
AcDbEntity
  8
文字
100
AcDbText
 10
3920.792715338622
 20
-252.8250630523705
 30
0.0
 40
6.0
  1
PC鋼より線 φ15.2
 41
0.8
  7
STYLE1
100
AcDbText
  0
TEXT
  5
6137
330
2
100
AcDbEntity
  8
文字
100
AcDbText
 10
3957.578329059487
 20
-145.0969546766444
 30
0.0
 40
6.0
  1
防錆油
 41
0.8
  7
STYLE1
100
AcDbText
  0
SOLID
  5
6138
330
2
100
AcDbEntity
  8
文字
100
AcDbTrace
 10
4035.011884306277
 20
-194.6787936649273
 30
0.0
 11
4038.025820825373
 21
-198.1035106837278
 31
0.0
 12
4034.064080760671
 22
-195.8414064288929
 32
0.0
 13
4034.064080760671
 23
-195.8414064288929
 33
0.0
  0
LWPOLYLINE
  5
6139
330
2
100
AcDbEntity
  8
文字
100
AcDbPolyline
 90
        3
 70
     0
 43
0.0
 10
4038.025820825373
 20
-198.1035106837278
 10
3980.192709916154
 20
-146.9719546766444
 10
3957.578329059487
 20
-146.9719546766444
  0
SOLID
  5
613A
330
2
100
AcDbEntity
  8
文字
100
AcDbTrace
 10
4014.489493946593
 20
-227.5040039738681
 30
0.0
 11
4017.49322860126
 21
-224.07033565495
 31
0.0
 12
4013.538235824493
 22
-226.3442160686288
 32
0.0
 13
4013.538235824493
 23
-226.3442160686288
 33
0.0
  0
LWPOLYLINE
  5
613B
330
2
100
AcDbEntity
  8
文字
100
AcDbPolyline
 90
        3
 70
     0
 43
0.0
 10
4017.49322860126
 20
-224.07033565495
 10
3980.521252072539
 20
-254.3947534249066
 10
3918.561291204441
 20
-254.3951226896504
  0
TEXT
  5
613C
330
2
100
AcDbEntity
  8
文字
100
AcDbText
 10
4094.332791822523
 20
-258.8900080817805
 30
0.0
 40
6.0
  1
ポリエチレンシース
 41
0.8
  7
STYLE1
100
AcDbText
  0
LWPOLYLINE
  5
613D
330
2
100
AcDbEntity
  8
文字
100
AcDbPolyline
 90
        3
 70
     0
 43
0.0
 10
4073.204053967001
 20
-237.8036544892418
 10
4092.02302507791
 20
-260.1509354715047
 10
4157.757101471008
 20
-260.1513047362494
  0
LINE
  5
613E
330
2
100
AcDbEntity
  8
寸法
  6
ByBlock
100
AcDbLine
 10
4045.778527805613
 20
-272.7401162062704
 30
0.0
 11
4170.42794098277
 21
-272.7401162062708
 31
0.0
  0
LINE
  5
613F
330
2
100
AcDbEntity
  8
寸法
  6
ByBlock
100
AcDbLine
 10
4166.67794098277
 20
-272.7401162062708
 30
0.0
 11
4166.67794098277
 21
-142.2401162062708
 31
0.0
  0
SOLID
  5
6140
330
2
100
AcDbEntity
  8
寸法
  6
ByBlock
100
AcDbTrace
 10
4165.92794098277
 20
-268.2401162062708
 30
0.0
 11
4167.42794098277
 21
-268.2401162062708
 31
0.0
 12
4166.67794098277
 22
-272.7401162062708
 32
0.0
 13
4166.67794098277
 23
-272.7401162062708
 33
0.0
  0
SOLID
  5
6141
330
2
100
AcDbEntity
  8
寸法
  6
ByBlock
100
AcDbTrace
 10
4165.92794098277
 20
-142.2401162062708
 30
0.0
 11
4167.42794098277
 21
-142.2401162062708
 31
0.0
 12
4166.67794098277
 22
-137.7401162062708
 32
0.0
 13
4166.67794098277
 23
-137.7401162062708
 33
0.0
  0
TEXT
  5
6142
330
2
100
AcDbEntity
  8
寸法
100
AcDbText
 10
4164.80294098277
 20
-218.7645152114185
 30
0.0
 40
6.0
  1
削孔径φ
 50
90.0
 41
0.9
  7
STYLE1
100
AcDbText
  0
CIRCLE
  5
6143
330
2
100
AcDbEntity
  8
構造
100
AcDbCircle
 10
4043.903527805614
 20
-205.2401162062704
 30
0.0
 40
67.5
  0
LINE
  5
6144
330
2
100
AcDbEntity
  8
中心線
100
AcDbLine
 10
3968.903527805613
 20
-205.3389699930897
 30
0.0
 11
4118.903527805613
 21
-205.3389699930897
 31
0.0
  0
LINE
  5
6145
330
2
100
AcDbEntity
  8
寸法
  6
ByBlock
100
AcDbLine
 10
4045.778527805613
 20
-137.7401162062704
 30
0.0
 11
4170.42794098277
 21
-137.7401162062708
 31
0.0
  0
LINE
  5
6146
330
2
100
AcDbEntity
  8
中心線
100
AcDbLine
 10
4043.903527805613
 20
-280.3389699930897
 30
0.0
 11
4043.903527805614
 21
-130.3389699930897
 31
0.0
  0
CIRCLE
  5
6147
330
2
100
AcDbEntity
  8
JISSEN
 62
     0
100
AcDbCircle
 10
4023.631525505973
 20
-214.475316278372
 30
0.0
 40
2.533333333333333
  0
CIRCLE
  5
6148
330
2
100
AcDbEntity
  8
JISSEN
 62
     0
100
AcDbCircle
 10
4023.631525505962
 20
-224.608649611713
 30
0.0
 40
2.533333333333333
  0
CIRCLE
  5
6149
330
2
100
AcDbEntity
  8
JISSEN
 62
     0
100
AcDbCircle
 10
4023.631525505955
 20
-219.54198294505
 30
0.0
 40
2.533333333333333
  0
CIRCLE
  5
614A
330
2
100
AcDbEntity
  8
JISSEN
 62
     0
100
AcDbCircle
 10
4028.019387551808
 20
-217.0086496117099
 30
0.0
 40
2.533333333333333
  0
CIRCLE
  5
614B
330
2
100
AcDbEntity
  8
JISSEN
 62
     0
100
AcDbCircle
 10
4028.019387551815
 20
-222.0753162783728
 30
0.0
 40
2.533333333333333
  0
CIRCLE
  5
614C
330
2
100
AcDbEntity
  8
JISSEN
 62
     0
100
AcDbCircle
 10
4019.243663460119
 20
-217.0086496117121
 30
0.0
 40
2.533333333333333
  0
CIRCLE
  5
614D
330
2
100
AcDbEntity
  8
JISSEN
 62
     0
100
AcDbCircle
 10
4019.243663460126
 20
-222.0753162783751
 30
0.0
 40
2.533333333333333
  0
CIRCLE
  5
614E
102
{ACAD_REACTORS
330
6193
102
}
330
2
100
AcDbEntity
  8
JISSEN
 62
     0
100
AcDbCircle
 10
4021.036861138952
 20
-200.9511079472479
 30
0.0
 40
2.533333333333333
  0
CIRCLE
  5
614F
102
{ACAD_REACTORS
330
6193
102
}
330
2
100
AcDbEntity
  8
JISSEN
 62
     0
100
AcDbCircle
 10
4015.970194472272
 20
-209.7268320389314
 30
0.0
 40
2.533333333333333
  0
CIRCLE
  5
6150
102
{ACAD_REACTORS
330
6193
102
}
330
2
100
AcDbEntity
  8
JISSEN
 62
     0
100
AcDbCircle
 10
4018.503527805598
 20
-205.3389699930897
 30
0.0
 40
2.533333333333333
  0
CIRCLE
  5
6151
102
{ACAD_REACTORS
330
6193
102
}
330
2
100
AcDbEntity
  8
JISSEN
 62
     0
100
AcDbCircle
 10
4023.570194472278
 20
-205.3389699930897
 30
0.0
 40
2.533333333333333
  0
CIRCLE
  5
6152
102
{ACAD_REACTORS
330
6193
102
}
330
2
100
AcDbEntity
  8
JISSEN
 62
     0
100
AcDbCircle
 10
4021.036861138953
 20
-209.7268320389314
 30
0.0
 40
2.533333333333333
  0
CIRCLE
  5
6153
102
{ACAD_REACTORS
330
6193
102
}
330
2
100
AcDbEntity
  8
JISSEN
 62
     0
100
AcDbCircle
 10
4015.970194472272
 20
-200.9511079472479
 30
0.0
 40
2.533333333333333
  0
CIRCLE
  5
6154
102
{ACAD_REACTORS
330
6193
102
}
330
2
100
AcDbEntity
  8
JISSEN
 62
     0
100
AcDbCircle
 10
4013.436861138946
 20
-205.3389699930897
 30
0.0
 40
2.533333333333333
  0
CIRCLE
  5
6155
102
{ACAD_REACTORS
330
6194
102
}
330
2
100
AcDbEntity
  8
JISSEN
 62
     0
100
AcDbCircle
 10
4028.019387551815
 20
-188.6088225084634
 30
0.0
 40
2.533333333333333
  0
CIRCLE
  5
6156
102
{ACAD_REACTORS
330
6194
102
}
330
2
100
AcDbEntity
  8
JISSEN
 62
     0
100
AcDbCircle
 10
4019.24366346012
 20
-193.6754891751241
 30
0.0
 40
2.533333333333333
  0
CIRCLE
  5
6157
102
{ACAD_REACTORS
330
6194
102
}
330
2
100
AcDbEntity
  8
JISSEN
 62
     0
100
AcDbCircle
 10
4023.631525505955
 20
-191.1421558417867
 30
0.0
 40
2.533333333333333
  0
CIRCLE
  5
6158
102
{ACAD_REACTORS
330
6194
102
}
330
2
100
AcDbEntity
  8
JISSEN
 62
     0
100
AcDbCircle
 10
4028.019387551808
 20
-193.6754891751268
 30
0.0
 40
2.533333333333333
  0
CIRCLE
  5
6159
102
{ACAD_REACTORS
330
6194
102
}
330
2
100
AcDbEntity
  8
JISSEN
 62
     0
100
AcDbCircle
 10
4023.631525505974
 20
-196.2088225084647
 30
0.0
 40
2.533333333333333
  0
CIRCLE
  5
615A
102
{ACAD_REACTORS
330
6194
102
}
330
2
100
AcDbEntity
  8
JISSEN
 62
     0
100
AcDbCircle
 10
4023.631525505962
 20
-186.0754891751233
 30
0.0
 40
2.533333333333333
  0
CIRCLE
  5
615B
102
{ACAD_REACTORS
330
6194
102
}
330
2
100
AcDbEntity
  8
JISSEN
 62
     0
100
AcDbCircle
 10
4019.243663460127
 20
-188.6088225084611
 30
0.0
 40
2.533333333333333
  0
CIRCLE
  5
615C
102
{ACAD_REACTORS
330
6195
102
}
330
2
100
AcDbEntity
  8
JISSEN
 62
     0
100
AcDbCircle
 10
4040.36847676324
 20
-181.5790206043655
 30
0.0
 40
2.533333333333333
  0
CIRCLE
  5
615D
102
{ACAD_REACTORS
330
6195
102
}
330
2
100
AcDbEntity
  8
JISSEN
 62
     0
100
AcDbCircle
 10
4030.235143429898
 20
-181.5790206043541
 30
0.0
 40
2.533333333333333
  0
CIRCLE
  5
615E
102
{ACAD_REACTORS
330
6195
102
}
330
2
100
AcDbEntity
  8
JISSEN
 62
     0
100
AcDbCircle
 10
4035.301810096562
 20
-181.5790206043473
 30
0.0
 40
2.533333333333333
  0
CIRCLE
  5
615F
102
{ACAD_REACTORS
330
6195
102
}
330
2
100
AcDbEntity
  8
JISSEN
 62
     0
100
AcDbCircle
 10
4037.835143429902
 20
-185.9668826502004
 30
0.0
 40
2.533333333333333
  0
CIRCLE
  5
6160
102
{ACAD_REACTORS
330
6195
102
}
330
2
100
AcDbEntity
  8
JISSEN
 62
     0
100
AcDbCircle
 10
4032.768476763239
 20
-185.9668826502077
 30
0.0
 40
2.533333333333333
  0
CIRCLE
  5
6161
102
{ACAD_REACTORS
330
6195
102
}
330
2
100
AcDbEntity
  8
JISSEN
 62
     0
100
AcDbCircle
 10
4037.8351434299
 20
-177.1911585585124
 30
0.0
 40
2.533333333333333
  0
CIRCLE
  5
6162
102
{ACAD_REACTORS
330
6195
102
}
330
2
100
AcDbEntity
  8
JISSEN
 62
     0
100
AcDbCircle
 10
4032.768476763237
 20
-177.1911585585196
 30
0.0
 40
2.533333333333333
  0
CIRCLE
  5
6163
102
{ACAD_REACTORS
330
6196
102
}
330
2
100
AcDbEntity
  8
JISSEN
 62
     0
100
AcDbCircle
 10
4030.736861138931
 20
-228.1443056261071
 30
0.0
 40
2.533333333333333
  0
CIRCLE
  5
6164
102
{ACAD_REACTORS
330
6196
102
}
330
2
100
AcDbEntity
  8
JISSEN
 62
     0
100
AcDbCircle
 10
4040.870194472273
 20
-228.1443056260962
 30
0.0
 40
2.533333333333333
  0
CIRCLE
  5
6165
102
{ACAD_REACTORS
330
6196
102
}
330
2
100
AcDbEntity
  8
JISSEN
 62
     0
100
AcDbCircle
 10
4035.803527805609
 20
-228.1443056260889
 30
0.0
 40
2.533333333333333
  0
CIRCLE
  5
6166
102
{ACAD_REACTORS
330
6196
102
}
330
2
100
AcDbEntity
  8
JISSEN
 62
     0
100
AcDbCircle
 10
4033.270194472269
 20
-232.5321676719425
 30
0.0
 40
2.533333333333333
  0
CIRCLE
  5
6167
102
{ACAD_REACTORS
330
6196
102
}
330
2
100
AcDbEntity
  8
JISSEN
 62
     0
100
AcDbCircle
 10
4038.336861138933
 20
-232.5321676719489
 30
0.0
 40
2.533333333333333
  0
CIRCLE
  5
6168
102
{ACAD_REACTORS
330
6196
102
}
330
2
100
AcDbEntity
  8
JISSEN
 62
     0
100
AcDbCircle
 10
4033.270194472271
 20
-223.7564435802544
 30
0.0
 40
2.533333333333333
  0
CIRCLE
  5
6169
102
{ACAD_REACTORS
330
6196
102
}
330
2
100
AcDbEntity
  8
JISSEN
 62
     0
100
AcDbCircle
 10
4038.336861138935
 20
-223.7564435802612
 30
0.0
 40
2.533333333333333
  0
CIRCLE
  5
616D
330
2
100
AcDbEntity
  8
構造
100
AcDbCircle
 10
4043.903527805613
 20
-205.3389699930897
 30
0.0
 40
38.0
  0
CIRCLE
  5
616E
330
2
100
AcDbEntity
  8
構造
100
AcDbCircle
 10
4043.903527805613
 20
-205.3389699930897
 30
0.0
 40
33.0
  0
CIRCLE
  5
616F
330
2
100
AcDbEntity
  8
JISSEN
 62
     0
100
AcDbCircle
 10
4064.175530105254
 20
-214.475316278372
 30
0.0
 40
2.533333333333333
  0
CIRCLE
  5
6170
330
2
100
AcDbEntity
  8
JISSEN
 62
     0
100
AcDbCircle
 10
4064.175530105265
 20
-224.608649611713
 30
0.0
 40
2.533333333333333
  0
CIRCLE
  5
6171
330
2
100
AcDbEntity
  8
JISSEN
 62
     0
100
AcDbCircle
 10
4064.175530105272
 20
-219.54198294505
 30
0.0
 40
2.533333333333333
  0
CIRCLE
  5
6172
330
2
100
AcDbEntity
  8
JISSEN
 62
     0
100
AcDbCircle
 10
4059.787668059419
 20
-217.0086496117094
 30
0.0
 40
2.533333333333333
  0
CIRCLE
  5
6173
330
2
100
AcDbEntity
  8
JISSEN
 62
     0
100
AcDbCircle
 10
4059.787668059412
 20
-222.0753162783728
 30
0.0
 40
2.533333333333333
  0
CIRCLE
  5
6174
330
2
100
AcDbEntity
  8
JISSEN
 62
     0
100
AcDbCircle
 10
4068.563392151107
 20
-217.0086496117121
 30
0.0
 40
2.533333333333333
  0
CIRCLE
  5
6175
330
2
100
AcDbEntity
  8
JISSEN
 62
     0
100
AcDbCircle
 10
4068.5633921511
 20
-222.0753162783751
 30
0.0
 40
2.533333333333333
  0
CIRCLE
  5
6176
102
{ACAD_REACTORS
330
6197
102
}
330
2
100
AcDbEntity
  8
JISSEN
 62
     0
100
AcDbCircle
 10
4066.770194472274
 20
-200.9511079472479
 30
0.0
 40
2.533333333333333
  0
CIRCLE
  5
6177
102
{ACAD_REACTORS
330
6197
102
}
330
2
100
AcDbEntity
  8
JISSEN
 62
     0
100
AcDbCircle
 10
4071.836861138954
 20
-209.7268320389314
 30
0.0
 40
2.533333333333333
  0
CIRCLE
  5
6178
102
{ACAD_REACTORS
330
6197
102
}
330
2
100
AcDbEntity
  8
JISSEN
 62
     0
100
AcDbCircle
 10
4069.303527805629
 20
-205.3389699930897
 30
0.0
 40
2.533333333333333
  0
CIRCLE
  5
6179
102
{ACAD_REACTORS
330
6197
102
}
330
2
100
AcDbEntity
  8
JISSEN
 62
     0
100
AcDbCircle
 10
4064.236861138948
 20
-205.3389699930897
 30
0.0
 40
2.533333333333333
  0
CIRCLE
  5
617A
102
{ACAD_REACTORS
330
6197
102
}
330
2
100
AcDbEntity
  8
JISSEN
 62
     0
100
AcDbCircle
 10
4066.770194472274
 20
-209.7268320389314
 30
0.0
 40
2.533333333333333
  0
CIRCLE
  5
617B
102
{ACAD_REACTORS
330
6197
102
}
330
2
100
AcDbEntity
  8
JISSEN
 62
     0
100
AcDbCircle
 10
4071.836861138954
 20
-200.9511079472479
 30
0.0
 40
2.533333333333333
  0
CIRCLE
  5
617C
102
{ACAD_REACTORS
330
6197
102
}
330
2
100
AcDbEntity
  8
JISSEN
 62
     0
100
AcDbCircle
 10
4074.37019447228
 20
-205.3389699930897
 30
0.0
 40
2.533333333333333
  0
CIRCLE
  5
617D
102
{ACAD_REACTORS
330
6198
102
}
330
2
100
AcDbEntity
  8
JISSEN
 62
     0
100
AcDbCircle
 10
4059.787668059411
 20
-188.6088225084634
 30
0.0
 40
2.533333333333333
  0
CIRCLE
  5
617E
102
{ACAD_REACTORS
330
6198
102
}
330
2
100
AcDbEntity
  8
JISSEN
 62
     0
100
AcDbCircle
 10
4068.563392151107
 20
-193.6754891751245
 30
0.0
 40
2.533333333333333
  0
CIRCLE
  5
617F
102
{ACAD_REACTORS
330
6198
102
}
330
2
100
AcDbEntity
  8
JISSEN
 62
     0
100
AcDbCircle
 10
4064.175530105271
 20
-191.1421558417867
 30
0.0
 40
2.533333333333333
  0
CIRCLE
  5
6180
102
{ACAD_REACTORS
330
6198
102
}
330
2
100
AcDbEntity
  8
JISSEN
 62
     0
100
AcDbCircle
 10
4059.787668059419
 20
-193.6754891751273
 30
0.0
 40
2.533333333333333
  0
CIRCLE
  5
6181
102
{ACAD_REACTORS
330
6198
102
}
330
2
100
AcDbEntity
  8
JISSEN
 62
     0
100
AcDbCircle
 10
4064.175530105254
 20
-196.2088225084647
 30
0.0
 40
2.533333333333333
  0
CIRCLE
  5
6182
102
{ACAD_REACTORS
330
6198
102
}
330
2
100
AcDbEntity
  8
JISSEN
 62
     0
100
AcDbCircle
 10
4064.175530105264
 20
-186.0754891751233
 30
0.0
 40
2.533333333333333
  0
CIRCLE
  5
6183
102
{ACAD_REACTORS
330
6198
102
}
330
2
100
AcDbEntity
  8
JISSEN
 62
     0
100
AcDbCircle
 10
4068.563392151099
 20
-188.6088225084611
 30
0.0
 40
2.533333333333333
  0
CIRCLE
  5
6184
102
{ACAD_REACTORS
330
6199
102
}
330
2
100
AcDbEntity
  8
JISSEN
 62
     0
100
AcDbCircle
 10
4047.438578847987
 20
-181.5790206043655
 30
0.0
 40
2.533333333333333
  0
CIRCLE
  5
6185
102
{ACAD_REACTORS
330
6199
102
}
330
2
100
AcDbEntity
  8
JISSEN
 62
     0
100
AcDbCircle
 10
4057.571912181327
 20
-181.5790206043541
 30
0.0
 40
2.533333333333333
  0
CIRCLE
  5
6186
102
{ACAD_REACTORS
330
6199
102
}
330
2
100
AcDbEntity
  8
JISSEN
 62
     0
100
AcDbCircle
 10
4052.505245514665
 20
-181.5790206043473
 30
0.0
 40
2.533333333333333
  0
CIRCLE
  5
6187
102
{ACAD_REACTORS
330
6199
102
}
330
2
100
AcDbEntity
  8
JISSEN
 62
     0
100
AcDbCircle
 10
4049.971912181325
 20
-185.9668826502004
 30
0.0
 40
2.533333333333333
  0
CIRCLE
  5
6188
102
{ACAD_REACTORS
330
6199
102
}
330
2
100
AcDbEntity
  8
JISSEN
 62
     0
100
AcDbCircle
 10
4055.038578847988
 20
-185.9668826502077
 30
0.0
 40
2.533333333333333
  0
CIRCLE
  5
6189
102
{ACAD_REACTORS
330
6199
102
}
330
2
100
AcDbEntity
  8
JISSEN
 62
     0
100
AcDbCircle
 10
4049.971912181326
 20
-177.1911585585124
 30
0.0
 40
2.533333333333333
  0
CIRCLE
  5
618A
102
{ACAD_REACTORS
330
6199
102
}
330
2
100
AcDbEntity
  8
JISSEN
 62
     0
100
AcDbCircle
 10
4055.03857884799
 20
-177.1911585585196
 30
0.0
 40
2.533333333333333
  0
CIRCLE
  5
618B
102
{ACAD_REACTORS
330
6192
102
}
330
2
100
AcDbEntity
  8
JISSEN
 62
     0
100
AcDbCircle
 10
4057.070194472295
 20
-228.1443056261071
 30
0.0
 40
2.533333333333333
  0
CIRCLE
  5
618C
102
{ACAD_REACTORS
330
6192
102
}
330
2
100
AcDbEntity
  8
JISSEN
 62
     0
100
AcDbCircle
 10
4046.936861138954
 20
-228.1443056260962
 30
0.0
 40
2.533333333333333
  0
CIRCLE
  5
618D
102
{ACAD_REACTORS
330
6192
102
}
330
2
100
AcDbEntity
  8
JISSEN
 62
     0
100
AcDbCircle
 10
4052.003527805617
 20
-228.1443056260889
 30
0.0
 40
2.533333333333333
  0
CIRCLE
  5
618E
102
{ACAD_REACTORS
330
6192
102
}
330
2
100
AcDbEntity
  8
JISSEN
 62
     0
100
AcDbCircle
 10
4054.536861138958
 20
-232.532167671942
 30
0.0
 40
2.533333333333333
  0
CIRCLE
  5
618F
102
{ACAD_REACTORS
330
6192
102
}
330
2
100
AcDbEntity
  8
JISSEN
 62
     0
100
AcDbCircle
 10
4049.470194472294
 20
-232.5321676719489
 30
0.0
 40
2.533333333333333
  0
CIRCLE
  5
6190
102
{ACAD_REACTORS
330
6192
102
}
330
2
100
AcDbEntity
  8
JISSEN
 62
     0
100
AcDbCircle
 10
4054.536861138955
 20
-223.7564435802544
 30
0.0
 40
2.533333333333333
  0
CIRCLE
  5
6191
102
{ACAD_REACTORS
330
6192
102
}
330
2
100
AcDbEntity
  8
JISSEN
 62
     0
100
AcDbCircle
 10
4049.470194472292
 20
-223.7564435802612
 30
0.0
 40
2.533333333333333
  0
CIRCLE
  5
6215
330
2
100
AcDbEntity
  8
JISSEN
 62
     0
100
AcDbCircle
 10
4293.903527805613
 20
-245.4056366597699
 30
0.0
 40
2.533333333333333
  0
CIRCLE
  5
6216
330
2
100
AcDbEntity
  8
JISSEN
 62
     0
100
AcDbCircle
 10
4293.903527805613
 20
-235.2723033264094
 30
0.0
 40
2.533333333333333
  0
CIRCLE
  5
6217
330
2
100
AcDbEntity
  8
JISSEN
 62
     0
100
AcDbCircle
 10
4293.903527805613
 20
-240.3389699930897
 30
0.0
 40
2.533333333333333
  0
CIRCLE
  5
6218
330
2
100
AcDbEntity
  8
JISSEN
 62
     0
100
AcDbCircle
 10
4289.515665759771
 20
-242.872303326415
 30
0.0
 40
2.533333333333333
  0
CIRCLE
  5
6219
330
2
100
AcDbEntity
  8
JISSEN
 62
     0
100
AcDbCircle
 10
4289.515665759771
 20
-237.8056366597639
 30
0.0
 40
2.533333333333333
  0
CIRCLE
  5
621A
330
2
100
AcDbEntity
  8
JISSEN
 62
     0
100
AcDbCircle
 10
4298.291389851454
 20
-242.8723033264152
 30
0.0
 40
2.533333333333333
  0
CIRCLE
  5
621B
330
2
100
AcDbEntity
  8
JISSEN
 62
     0
100
AcDbCircle
 10
4298.291389851454
 20
-237.8056366597641
 30
0.0
 40
2.533333333333333
  0
VIEWPORT
  5
61B0
102
{ACAD_XDICTIONARY
360
61B1
102
}
330
9
100
AcDbEntity
 67
     1
  8
0
100
AcDbViewport
 10
10.97172835642084
 20
5.200105141335655
 30
0.0
 40
30.57854122092216
 41
13.46881624135539
 68
     2
 69
     1
 12
10.97172835642084
 22
5.200105141335655
 13
0.0
 23
0.0
 14
10.0
 24
10.0
 15
10.0
 25
10.0
 16
0.0
 26
0.0
 36
1.0
 17
0.0
 27
0.0
 37
0.0
 42
50.0
 43
0.0
 44
0.0
 45
13.46881624135539
 50
0.0
 51
0.0
 72
   100
 90
   557088
  1

281
     0
 71
     1
 74
     0
110
0.0
120
0.0
130
0.0
111
1.0
121
0.0
131
0.0
112
0.0
122
1.0
132
0.0
 79
     0
146
0.0
170
     0
 61
     5
348
733
292
     1
282
     1
141
0.0
142
0.0
 63
   256
  0
VIEWPORT
  5
61B4
102
{ACAD_XDICTIONARY
360
61B5
102
}
330
9
100
AcDbEntity
 67
     1
  8
構造
100
AcDbViewport
 10
8.14608482182473
 20
5.71618719721738
 30
0.0
 40
16.41867902681111
 41
11.60913866163162
 68
     1
 69
     2
 12
4213.184014601934
 22
-979.7623800897322
 13
0.0
 23
0.0
 14
10.0
 24
10.0
 15
10.0
 25
10.0
 16
0.0
 26
0.0
 36
1.0
 17
0.0
 27
0.0
 37
0.0
 42
50.0
 43
0.0
 44
0.0
 45
886.0153645539253
 50
0.0
 51
0.0
 72
   100
 90
   819232
  1

281
     0
 71
     1
 74
     0
110
0.0
120
0.0
130
0.0
111
1.0
121
0.0
131
0.0
112
0.0
122
1.0
132
0.0
 79
     0
146
0.0
170
     0
 61
     5
348
733
292
     1
282
     1
141
0.0
142
0.0
 63
   256
  0
ENDSEC
  0
SECTION
  2
OBJECTS
  0
DICTIONARY
  5
1C
330
0
100
AcDbDictionary
281
     1
  3
ACAD_COLOR
350
73E
  3
ACAD_DETAILVIEWSTYLE
350
6262
  3
ACAD_GROUP
350
1A
  3
ACAD_LAYOUT
350
71C
  3
ACAD_MATERIAL
350
729
  3
ACAD_MLEADERSTYLE
350
505E
  3
ACAD_MLINESTYLE
350
1B
  3
ACAD_PLOTSETTINGS
350
71D
  3
ACAD_PLOTSTYLENAME
350
71A
  3
ACAD_SCALELIST
350
503C
  3
ACAD_SECTIONVIEWSTYLE
350
6263
  3
ACAD_TABLESTYLE
350
73F
  3
ACAD_VISUALSTYLE
350
72D
  3
ACDB_RECOMPOSE_DATA
350
6260
  3
AcDbVariableDictionary
350
726
  3
APPDATA
350
625D
  0
DICTIONARY
  5
747
330
C
100
AcDbDictionary
280
     1
281
     1
  3
ACAD_LAYERSTATES
360
748
  0
DICTIONARY
  5
5066
330
6
100
AcDbDictionary
280
     1
281
     1
  3
ADSK_XREC_LAYER_RECONCILED
360
5067
  0
DICTIONARY
  5
5068
330
1CD
100
AcDbDictionary
280
     1
281
     1
  3
ADSK_XREC_LAYER_RECONCILED
360
5069
  0
DICTIONARY
  5
506A
330
10B
100
AcDbDictionary
280
     1
281
     1
  3
ADSK_XREC_LAYER_RECONCILED
360
506B
  0
DICTIONARY
  5
506C
330
105
100
AcDbDictionary
280
     1
281
     1
  3
ADSK_XREC_LAYER_RECONCILED
360
506D
  0
DICTIONARY
  5
506E
330
60
100
AcDbDictionary
280
     1
281
     1
  3
ADSK_XREC_LAYER_RECONCILED
360
506F
  0
DICTIONARY
  5
5070
330
21
100
AcDbDictionary
280
     1
281
     1
  3
ADSK_XREC_LAYER_RECONCILED
360
5071
  0
DICTIONARY
  5
5072
330
F6
100
AcDbDictionary
280
     1
281
     1
  3
ADSK_XREC_LAYER_RECONCILED
360
5073
  0
DICTIONARY
  5
5074
330
746
100
AcDbDictionary
280
     1
281
     1
  3
ADSK_XREC_LAYER_RECONCILED
360
5075
  0
DICTIONARY
  5
3
330
2
100
AcDbDictionary
280
     1
281
     1
  3
ACAD_SORTENTS
360
4
  0
DICTIONARY
  5
61B1
330
61B0
100
AcDbDictionary
280
     1
281
     1
  3
ASDK_XREC_ANNOTATION_SCALE_INFO
360
61B2
  0
DICTIONARY
  5
61B5
330
61B4
100
AcDbDictionary
280
     1
281
     1
  3
ASDK_XREC_ANNOTATION_SCALE_INFO
360
61B6
  0
DICTIONARY
  5
73E
102
{ACAD_REACTORS
330
1C
102
}
330
1C
100
AcDbDictionary
281
     1
  0
DICTIONARY
  5
6262
102
{ACAD_REACTORS
330
1C
102
}
330
1C
100
AcDbDictionary
281
     1
  0
DICTIONARY
  5
1A
102
{ACAD_REACTORS
330
1C
102
}
330
1C
100
AcDbDictionary
281
     1
  3
*A100
350
6194
  3
*A101
350
6195
  3
*A25
350
6198
  3
*A3
350
6196
  3
*A36
350
6199
  3
*A4
350
6197
  3
*A98
350
6192
  3
*A99
350
6193
  0
DICTIONARY
  5
71C
102
{ACAD_REACTORS
330
1C
102
}
330
1C
100
AcDbDictionary
281
     1
  3
Model
350
71E
  3
ﾚｲｱｳﾄ1
350
71F
  0
DICTIONARY
  5
729
102
{ACAD_REACTORS
330
1C
102
}
330
1C
100
AcDbDictionary
281
     1
  3
ByBlock
350
72B
  3
ByLayer
350
72A
  3
Global
350
72C
  0
DICTIONARY
  5
505E
102
{ACAD_REACTORS
330
1C
102
}
330
1C
100
AcDbDictionary
281
     1
  3
Standard
350
505F
  0
DICTIONARY
  5
1B
102
{ACAD_REACTORS
330
1C
102
}
330
1C
100
AcDbDictionary
281
     1
  3
STANDARD
350
1E
  0
DICTIONARY
  5
71D
102
{ACAD_REACTORS
330
1C
102
}
330
1C
100
AcDbDictionary
281
     1
  0
ACDBDICTIONARYWDFLT
  5
71A
102
{ACAD_REACTORS
330
1C
102
}
330
1C
100
AcDbDictionary
281
     1
  3
Normal
350
71B
100
AcDbDictionaryWithDefault
340
71B
  0
DICTIONARY
  5
503C
102
{ACAD_REACTORS
330
1C
102
}
330
1C
100
AcDbDictionary
281
     1
  3
A0
350
503D
  3
A1
350
503E
  3
A2
350
503F
  3
A3
350
5040
  3
A4
350
5041
  3
A5
350
5042
  3
A6
350
5043
  3
A7
350
5044
  3
A8
350
5045
  3
A9
350
5046
  3
B0
350
5047
  3
B1
350
5048
  3
B2
350
5049
  3
B3
350
504A
  3
B4
350
504B
  3
B5
350
504C
  3
B6
350
504D
  3
B7
350
504E
  3
B8
350
504F
  3
B9
350
5050
  3
C0
350
5051
  3
C1
350
5052
  3
C2
350
5053
  3
C3
350
5054
  3
C4
350
5055
  3
C5
350
5056
  3
C6
350
5057
  3
C7
350
5058
  3
C8
350
5059
  3
C9
350
505A
  3
D0
350
505B
  3
D1
350
505C
  3
D2
350
505D
  0
DICTIONARY
  5
6263
102
{ACAD_REACTORS
330
1C
102
}
330
1C
100
AcDbDictionary
281
     1
  0
DICTIONARY
  5
73F
102
{ACAD_REACTORS
330
1C
102
}
330
1C
100
AcDbDictionary
281
     1
  3
Standard
350
740
  0
DICTIONARY
  5
72D
102
{ACAD_REACTORS
330
1C
102
}
330
1C
100
AcDbDictionary
281
     1
  3
2dWireframe
350
733
  3
3D Hidden
350
735
  3
3dWireframe
350
734
  3
Basic
350
732
  3
Brighten
350
739
  3
ColorChange
350
73D
  3
Conceptual
350
736
  3
Dim
350
738
  3
EdgeColorOff
350
50A6
  3
Facepattern
350
73C
  3
Flat
350
72E
  3
FlatWithEdges
350
72F
  3
Gouraud
350
730
  3
GouraudWithEdges
350
731
  3
Hidden
350
509E
  3
JitterOff
350
50A4
  3
Linepattern
350
73B
  3
OverhangOff
350
50A5
  3
Realistic
350
737
  3
Shaded
350
50A3
  3
Shaded with edges
350
50A2
  3
Shades of Gray
350
509F
  3
Sketchy
350
50A0
  3
Thicken
350
73A
  3
Wireframe
350
509D
  3
X-Ray
350
50A1
  0
XRECORD
  5
6260
102
{ACAD_REACTORS
330
1C
102
}
330
1C
100
AcDbXrecord
280
     1
 90
        1
330
740
  0
DICTIONARY
  5
726
102
{ACAD_REACTORS
330
1C
102
}
330
1C
100
AcDbDictionary
281
     1
  3
CANNOSCALE
350
5087
  3
CMLEADERSTYLE
350
5086
  3
CTABLESTYLE
350
1258
  3
DIMASSOC
350
727
  3
INDEXCTL
350
136C
  3
MSLTSCALE
350
6261
  3
SORTENTS
350
136B
  3
XCLIPFRAME
350
625C
  0
DICTIONARY
  5
625D
102
{ACAD_REACTORS
330
1C
102
}
330
1C
100
AcDbDictionary
281
     1
  0
DICTIONARY
  5
748
102
{ACAD_REACTORS
330
747
102
}
330
747
100
AcDbDictionary
281
     1
  0
XRECORD
  5
5067
102
{ACAD_REACTORS
330
5066
102
}
330
5066
100
AcDbXrecord
280
     1
290
     1
  0
XRECORD
  5
5069
102
{ACAD_REACTORS
330
5068
102
}
330
5068
100
AcDbXrecord
280
     1
290
     1
  0
XRECORD
  5
506B
102
{ACAD_REACTORS
330
506A
102
}
330
506A
100
AcDbXrecord
280
     1
290
     1
  0
XRECORD
  5
506D
102
{ACAD_REACTORS
330
506C
102
}
330
506C
100
AcDbXrecord
280
     1
290
     1
  0
XRECORD
  5
506F
102
{ACAD_REACTORS
330
506E
102
}
330
506E
100
AcDbXrecord
280
     1
290
     1
  0
XRECORD
  5
5071
102
{ACAD_REACTORS
330
5070
102
}
330
5070
100
AcDbXrecord
280
     1
290
     1
  0
XRECORD
  5
5073
102
{ACAD_REACTORS
330
5072
102
}
330
5072
100
AcDbXrecord
280
     1
290
     1
  0
XRECORD
  5
5075
102
{ACAD_REACTORS
330
5074
102
}
330
5074
100
AcDbXrecord
280
     1
290
     1
  0
SORTENTSTABLE
  5
4
102
{ACAD_REACTORS
330
3
102
}
330
3
100
AcDbSortentsTable
330
2
  0
XRECORD
  5
61B2
102
{ACAD_REACTORS
330
61B1
102
}
330
61B1
100
AcDbXrecord
280
     1
 90
        1
340
503D
  0
XRECORD
  5
61B6
102
{ACAD_REACTORS
330
61B5
102
}
330
61B5
100
AcDbXrecord
280
     1
 90
        1
340
503D
  0
GROUP
  5
6194
102
{ACAD_REACTORS
330
1A
102
}
330
1A
100
AcDbGroup
300

 70
     1
 71
     1
340
615B
340
615A
340
6159
340
6158
340
6157
340
6156
340
6155
  0
GROUP
  5
6195
102
{ACAD_REACTORS
330
1A
102
}
330
1A
100
AcDbGroup
300

 70
     1
 71
     1
340
6162
340
6161
340
6160
340
615F
340
615E
340
615D
340
615C
  0
GROUP
  5
6198
102
{ACAD_REACTORS
330
1A
102
}
330
1A
100
AcDbGroup
300

 70
     1
 71
     1
340
6183
340
6182
340
6181
340
6180
340
617F
340
617E
340
617D
  0
GROUP
  5
6196
102
{ACAD_REACTORS
330
1A
102
}
330
1A
100
AcDbGroup
300

 70
     1
 71
     1
340
6169
340
6168
340
6167
340
6166
340
6165
340
6164
340
6163
  0
GROUP
  5
6199
102
{ACAD_REACTORS
330
1A
102
}
330
1A
100
AcDbGroup
300

 70
     1
 71
     1
340
618A
340
6189
340
6188
340
6187
340
6186
340
6185
340
6184
  0
GROUP
  5
6197
102
{ACAD_REACTORS
330
1A
102
}
330
1A
100
AcDbGroup
300

 70
     1
 71
     1
340
617C
340
617B
340
617A
340
6179
340
6178
340
6177
340
6176
  0
GROUP
  5
6192
102
{ACAD_REACTORS
330
1A
102
}
330
1A
100
AcDbGroup
300

 70
     1
 71
     1
340
6191
340
6190
340
618F
340
618E
340
618D
340
618C
340
618B
  0
GROUP
  5
6193
102
{ACAD_REACTORS
330
1A
102
}
330
1A
100
AcDbGroup
300

 70
     1
 71
     1
340
6154
340
6153
340
6152
340
6151
340
6150
340
614F
340
614E
  0
LAYOUT
  5
71E
102
{ACAD_REACTORS
330
71C
102
}
330
71C
100
AcDbPlotSettings
  1

  2
EPSON PM-4000PX
  4

  6

 40
0.0
 41
0.0
 42
0.0
 43
0.0
 44
0.0
 45
0.0
 46
0.0
 47
0.0
 48
0.0
 49
0.0
140
0.0
141
0.0
142
1.0
143
1.0
 70
  1712
 72
     0
 73
     0
 74
     0
  7

 75
     0
 76
     0
 77
     2
 78
   300
147
1.0
148
0.0
149
0.0
100
AcDbLayout
  1
Model
 70
     1
 71
     0
 10
0.0
 20
0.0
 11
12.0
 21
9.0
 12
0.0
 22
0.0
 32
0.0
 14
0.0
 24
0.0
 34
0.0
 15
0.0
 25
0.0
 35
0.0
146
0.0
 13
0.0
 23
0.0
 33
0.0
 16
1.0
 26
0.0
 36
0.0
 17
0.0
 27
1.0
 37
0.0
 76
     0
330
2
331
725
  0
LAYOUT
  5
71F
102
{ACAD_REACTORS
330
71C
102
}
330
71C
100
AcDbPlotSettings
  1

  2
Adobe PDF
  4
A3
  6

 40
3.174999952316284
 41
3.174999952316284
 42
3.17498779296875
 43
3.17498779296875
 44
297.0318298339844
 45
420.1583251953125
 46
0.0
 47
0.0
 48
0.0
 49
0.0
140
0.0
141
0.0
142
1.0
143
0.0393700787401575
 70
   672
 72
     1
 73
     1
 74
     5
  7

 75
    16
 76
     0
 77
     2
 78
   300
147
25.4
148
0.0
149
0.0
100
AcDbLayout
  1
ﾚｲｱｳﾄ1
 70
     1
 71
     1
 10
-0.1249995194082185
 20
-0.1249999981226884
 11
16.41666682686393
 21
11.56916653077434
 12
0.0
 22
0.0
 32
0.0
 14
-0.0632546915808234
 24
-0.0883821335984294
 34
-0.0015258207003583
 15
16.35542433523028
 25
11.52075652803319
 35
0.0000000349246037
146
0.0
 13
0.0
 23
0.0
 33
0.0
 16
1.0
 26
0.0
 36
0.0
 17
0.0
 27
1.0
 37
0.0
 76
     0
330
9
331
61B4
1001
ACAD_PSEXT
1000
Adobe PDF
1000
Adobe PDF Converter
1000
Documents\*.pdf
1000

1070
     0
  0
MATERIAL
  5
72B
102
{ACAD_REACTORS
330
729
102
}
330
729
100
AcDbMaterial
  1
ByBlock
 72
     1
 94
       63
  0
MATERIAL
  5
72A
102
{ACAD_REACTORS
330
729
102
}
330
729
100
AcDbMaterial
  1
ByLayer
 72
     1
 94
       63
  0
MATERIAL
  5
72C
102
{ACAD_REACTORS
330
729
102
}
330
729
100
AcDbMaterial
  1
Global
 72
     1
 94
       63
  0
MLEADERSTYLE
  5
505F
102
{ACAD_REACTORS
330
505E
102
}
330
505E
100
AcDbMLeaderStyle
179
     2
170
     2
171
     1
172
     0
 90
        2
 40
0.0
 41
0.0
173
     1
 91
-1056964608
340
10
 92
       -2
290
     1
 42
0.09
291
     1
 43
0.36
  3
Standard
341
0
 44
0.18
300

342
E
174
     1
178
     6
175
     1
176
     0
 93
-1056964608
 45
0.18
292
     0
297
     0
 46
0.18
343
0
 94
-1056964608
 47
1.0
 49
1.0
140
1.0
293
     1
141
0.0
294
     1
177
     0
142
1.0
295
     0
296
     0
143
0.125
271
     0
272
     9
273
     9
298
     0
  0
MLINESTYLE
  5
1E
102
{ACAD_REACTORS
330
1B
102
}
330
1B
100
AcDbMlineStyle
  2
STANDARD
 70
     0
  3

 62
   256
 51
90.0
 52
90.0
 71
     2
 49
0.5
 62
   256
  6
BYLAYER
 49
-0.5
 62
   256
  6
BYLAYER
  0
ACDBPLACEHOLDER
  5
71B
102
{ACAD_REACTORS
330
71A
102
}
330
71A
  0
SCALE
  5
503D
102
{ACAD_REACTORS
330
503C
102
}
330
503C
100
AcDbScale
 70
     0
300
1:1
140
1.0
141
1.0
290
     1
  0
SCALE
  5
503E
102
{ACAD_REACTORS
330
503C
102
}
330
503C
100
AcDbScale
 70
     0
300
1:2
140
1.0
141
2.0
290
     0
  0
SCALE
  5
503F
102
{ACAD_REACTORS
330
503C
102
}
330
503C
100
AcDbScale
 70
     0
300
1:4
140
1.0
141
4.0
290
     0
  0
SCALE
  5
5040
102
{ACAD_REACTORS
330
503C
102
}
330
503C
100
AcDbScale
 70
     0
300
1:5
140
1.0
141
5.0
290
     0
  0
SCALE
  5
5041
102
{ACAD_REACTORS
330
503C
102
}
330
503C
100
AcDbScale
 70
     0
300
1:8
140
1.0
141
8.0
290
     0
  0
SCALE
  5
5042
102
{ACAD_REACTORS
330
503C
102
}
330
503C
100
AcDbScale
 70
     0
300
1:10
140
1.0
141
10.0
290
     0
  0
SCALE
  5
5043
102
{ACAD_REACTORS
330
503C
102
}
330
503C
100
AcDbScale
 70
     0
300
1:16
140
1.0
141
16.0
290
     0
  0
SCALE
  5
5044
102
{ACAD_REACTORS
330
503C
102
}
330
503C
100
AcDbScale
 70
     0
300
1:20
140
1.0
141
20.0
290
     0
  0
SCALE
  5
5045
102
{ACAD_REACTORS
330
503C
102
}
330
503C
100
AcDbScale
 70
     0
300
1:30
140
1.0
141
30.0
290
     0
  0
SCALE
  5
5046
102
{ACAD_REACTORS
330
503C
102
}
330
503C
100
AcDbScale
 70
     0
300
1:40
140
1.0
141
40.0
290
     0
  0
SCALE
  5
5047
102
{ACAD_REACTORS
330
503C
102
}
330
503C
100
AcDbScale
 70
     0
300
1:50
140
1.0
141
50.0
290
     0
  0
SCALE
  5
5048
102
{ACAD_REACTORS
330
503C
102
}
330
503C
100
AcDbScale
 70
     0
300
1:100
140
1.0
141
100.0
290
     0
  0
SCALE
  5
5049
102
{ACAD_REACTORS
330
503C
102
}
330
503C
100
AcDbScale
 70
     0
300
2:1
140
2.0
141
1.0
290
     0
  0
SCALE
  5
504A
102
{ACAD_REACTORS
330
503C
102
}
330
503C
100
AcDbScale
 70
     0
300
4:1
140
4.0
141
1.0
290
     0
  0
SCALE
  5
504B
102
{ACAD_REACTORS
330
503C
102
}
330
503C
100
AcDbScale
 70
     0
300
8:1
140
8.0
141
1.0
290
     0
  0
SCALE
  5
504C
102
{ACAD_REACTORS
330
503C
102
}
330
503C
100
AcDbScale
 70
     0
300
10:1
140
10.0
141
1.0
290
     0
  0
SCALE
  5
504D
102
{ACAD_REACTORS
330
503C
102
}
330
503C
100
AcDbScale
 70
     0
300
100:1
140
100.0
141
1.0
290
     0
  0
SCALE
  5
504E
102
{ACAD_REACTORS
330
503C
102
}
330
503C
100
AcDbScale
 70
     0
300
1/128" = 1'-0"
140
0.0078125
141
12.0
290
     0
  0
SCALE
  5
504F
102
{ACAD_REACTORS
330
503C
102
}
330
503C
100
AcDbScale
 70
     0
300
1/64" = 1'-0"
140
0.015625
141
12.0
290
     0
  0
SCALE
  5
5050
102
{ACAD_REACTORS
330
503C
102
}
330
503C
100
AcDbScale
 70
     0
300
1/32" = 1'-0"
140
0.03125
141
12.0
290
     0
  0
SCALE
  5
5051
102
{ACAD_REACTORS
330
503C
102
}
330
503C
100
AcDbScale
 70
     0
300
1/16" = 1'-0"
140
0.0625
141
12.0
290
     0
  0
SCALE
  5
5052
102
{ACAD_REACTORS
330
503C
102
}
330
503C
100
AcDbScale
 70
     0
300
3/32" = 1'-0"
140
0.09375
141
12.0
290
     0
  0
SCALE
  5
5053
102
{ACAD_REACTORS
330
503C
102
}
330
503C
100
AcDbScale
 70
     0
300
1/8" = 1'-0"
140
0.125
141
12.0
290
     0
  0
SCALE
  5
5054
102
{ACAD_REACTORS
330
503C
102
}
330
503C
100
AcDbScale
 70
     0
300
3/16" = 1'-0"
140
0.1875
141
12.0
290
     0
  0
SCALE
  5
5055
102
{ACAD_REACTORS
330
503C
102
}
330
503C
100
AcDbScale
 70
     0
300
1/4" = 1'-0"
140
0.25
141
12.0
290
     0
  0
SCALE
  5
5056
102
{ACAD_REACTORS
330
503C
102
}
330
503C
100
AcDbScale
 70
     0
300
3/8" = 1'-0"
140
0.375
141
12.0
290
     0
  0
SCALE
  5
5057
102
{ACAD_REACTORS
330
503C
102
}
330
503C
100
AcDbScale
 70
     0
300
1/2" = 1'-0"
140
0.5
141
12.0
290
     0
  0
SCALE
  5
5058
102
{ACAD_REACTORS
330
503C
102
}
330
503C
100
AcDbScale
 70
     0
300
3/4" = 1'-0"
140
0.75
141
12.0
290
     0
  0
SCALE
  5
5059
102
{ACAD_REACTORS
330
503C
102
}
330
503C
100
AcDbScale
 70
     0
300
1" = 1'-0"
140
1.0
141
12.0
290
     0
  0
SCALE
  5
505A
102
{ACAD_REACTORS
330
503C
102
}
330
503C
100
AcDbScale
 70
     0
300
1-1/2" = 1'-0"
140
1.5
141
12.0
290
     0
  0
SCALE
  5
505B
102
{ACAD_REACTORS
330
503C
102
}
330
503C
100
AcDbScale
 70
     0
300
3" = 1'-0"
140
3.0
141
12.0
290
     0
  0
SCALE
  5
505C
102
{ACAD_REACTORS
330
503C
102
}
330
503C
100
AcDbScale
 70
     0
300
6" = 1'-0"
140
6.0
141
12.0
290
     0
  0
SCALE
  5
505D
102
{ACAD_REACTORS
330
503C
102
}
330
503C
100
AcDbScale
 70
     0
300
1'-0" = 1'-0"
140
12.0
141
12.0
290
     0
  0
TABLESTYLE
  5
740
102
{ACAD_REACTORS
330
73F
102
}
102
{ACAD_XDICTIONARY
360
625E
102
}
330
73F
100
AcDbTableStyle
  3
Standard
 70
     0
 71
     0
 40
0.06
 41
0.06
280
     0
281
     0
  7
STANDARD
140
0.18
170
     2
 62
     0
 63
   257
283
     0
 90
      512
 91
        0
  1

274
    -2
284
     1
 64
     0
275
    -2
285
     1
 65
     0
276
    -2
286
     1
 66
     0
277
    -2
287
     1
 67
     0
278
    -2
288
     1
 68
     0
279
    -2
289
     1
 69
     0
  7
STANDARD
140
0.25
170
     5
 62
     0
 63
   257
283
     0
 90
      512
 91
        0
  1

274
    -2
284
     1
 64
     0
275
    -2
285
     1
 65
     0
276
    -2
286
     1
 66
     0
277
    -2
287
     1
 67
     0
278
    -2
288
     1
 68
     0
279
    -2
289
     1
 69
     0
  7
STANDARD
140
0.18
170
     5
 62
     0
 63
   257
283
     0
 90
      512
 91
        0
  1

274
    -2
284
     1
 64
     0
275
    -2
285
     1
 65
     0
276
    -2
286
     1
 66
     0
277
    -2
287
     1
 67
     0
278
    -2
288
     1
 68
     0
279
    -2
289
     1
 69
     0
  0
VISUALSTYLE
  5
733
102
{ACAD_REACTORS
330
72D
102
}
330
72D
100
AcDbVisualStyle
  2
2dWireframe
 70
     4
177
     3
291
     0
 70
    58
 90
        0
176
     1
 90
        2
176
     1
 90
        0
176
     1
 90
        0
176
     1
 40
-0.6
176
     1
 40
-30.0
176
     1
 62
     7
176
     1
 90
        1
176
     1
 90
        4
176
     1
 62
     7
176
     1
 62
   257
176
     1
 90
        1
176
     1
 90
        1
176
     1
 40
1.0
176
     1
 90
        0
176
     1
 62
   257
176
     1
 40
1.0
176
     1
 90
        1
176
     1
 90
        6
176
     1
 90
        2
176
     1
 62
     7
176
     1
 90
        5
176
     1
 90
        0
176
     1
 90
        0
176
     1
290
     0
176
     1
 90
        1
176
     1
 40
0.0
176
     1
 90
        0
176
     1
290
     1
176
     1
290
     1
176
     1
290
     0
176
     1
290
     0
176
     1
290
     0
176
     1
290
     0
176
     1
290
     0
176
     1
290
     0
176
     1
290
     0
176
     1
 90
       50
176
     1
 40
0.0
176
     1
 40
1.0
176
     1
 90
        0
176
     1
 62
    18
420
        0
176
     1
 90
       50
176
     1
 90
        3
176
     1
 62
     5
420
      255
176
     1
290
     0
176
     1
 90
       50
176
     1
 90
       50
176
     1
 90
       50
176
     1
290
     0
176
     1
 90
       50
176
     1
 62
   256
176
     0
 40
1.0
176
     0
 90
        2
176
     1
  1
strokes_ogs.tif
176
     1
290
     0
176
     1
 40
1.0
176
     1
 40
1.0
176
     1
  0
VISUALSTYLE
  5
735
102
{ACAD_REACTORS
330
72D
102
}
330
72D
100
AcDbVisualStyle
  2
3D Hidden
 70
     6
177
     3
291
     0
 70
    58
 90
        1
176
     1
 90
        2
176
     1
 90
        2
176
     1
 90
        0
176
     1
 40
-0.6
176
     1
 40
-30.0
176
     1
 62
     7
176
     1
 90
        2
176
     1
 90
        2
176
     1
 62
     7
176
     1
 62
   257
176
     1
 90
        2
176
     1
 90
        1
176
     1
 40
40.0
176
     1
 90
        0
176
     1
 62
   257
176
     1
 40
1.0
176
     1
 90
        1
176
     1
 90
        6
176
     1
 90
        2
176
     1
 62
     7
176
     1
 90
        3
176
     1
 90
        0
176
     1
 90
        0
176
     1
290
     0
176
     1
 90
        1
176
     1
 40
0.0
176
     1
 90
        0
176
     1
290
     0
176
     1
290
     1
176
     1
290
     1
176
     1
290
     0
176
     1
290
     0
176
     1
290
     0
176
     1
290
     0
176
     1
290
     0
176
     1
290
     0
176
     1
 90
       50
176
     1
 40
0.0
176
     1
 40
1.0
176
     1
 90
        0
176
     1
 62
    18
420
        0
176
     1
 90
       50
176
     1
 90
        3
176
     1
 62
     5
420
      255
176
     1
290
     0
176
     1
 90
       50
176
     1
 90
       50
176
     1
 90
       50
176
     1
290
     0
176
     1
 90
       50
176
     1
 62
   256
176
     0
 40
1.0
176
     0
 90
        2
176
     1
  1
strokes_ogs.tif
176
     1
290
     0
176
     1
 40
1.0
176
     1
 40
1.0
176
     1
  0
VISUALSTYLE
  5
734
102
{ACAD_REACTORS
330
72D
102
}
330
72D
100
AcDbVisualStyle
  2
3dWireframe
 70
     5
177
     3
291
     0
 70
    58
 90
        0
176
     1
 90
        2
176
     1
 90
        0
176
     1
 90
        0
176
     1
 40
-0.6
176
     1
 40
-30.0
176
     1
 62
     7
176
     1
 90
        1
176
     1
 90
        4
176
     1
 62
     7
176
     1
 62
   257
176
     1
 90
        1
176
     1
 90
        1
176
     1
 40
1.0
176
     1
 90
        0
176
     1
 62
   257
176
     1
 40
1.0
176
     1
 90
        1
176
     1
 90
        6
176
     1
 90
        2
176
     1
 62
     7
176
     1
 90
        5
176
     1
 90
        0
176
     1
 90
        0
176
     1
290
     0
176
     1
 90
        1
176
     1
 40
0.0
176
     1
 90
        0
176
     1
290
     0
176
     1
290
     1
176
     1
290
     1
176
     1
290
     0
176
     1
290
     0
176
     1
290
     0
176
     1
290
     0
176
     1
290
     0
176
     1
290
     0
176
     1
 90
       50
176
     1
 40
0.0
176
     1
 40
1.0
176
     1
 90
        0
176
     1
 62
    18
420
        0
176
     1
 90
       50
176
     1
 90
        3
176
     1
 62
     5
420
      255
176
     1
290
     0
176
     1
 90
       50
176
     1
 90
       50
176
     1
 90
       50
176
     1
290
     0
176
     1
 90
       50
176
     1
 62
   256
176
     0
 40
1.0
176
     0
 90
        2
176
     1
  1
strokes_ogs.tif
176
     1
290
     0
176
     1
 40
1.0
176
     1
 40
1.0
176
     1
  0
VISUALSTYLE
  5
732
102
{ACAD_REACTORS
330
72D
102
}
330
72D
100
AcDbVisualStyle
  2
Basic
 70
     7
177
     3
291
     1
 70
    58
 90
        1
176
     1
 90
        0
176
     1
 90
        1
176
     1
 90
        0
176
     1
 40
-0.6
176
     1
 40
-30.0
176
     1
 62
     7
176
     1
 90
        0
176
     1
 90
        4
176
     1
 62
     7
176
     1
 62
   257
176
     1
 90
        1
176
     1
 90
        1
176
     1
 40
1.0
176
     1
 90
        8
176
     1
 62
     7
176
     1
 40
1.0
176
     1
 90
        1
176
     1
 90
        6
176
     1
 90
        2
176
     1
 62
     7
176
     1
 90
        5
176
     1
 90
        0
176
     1
 90
        0
176
     1
290
     0
176
     1
 90
        1
176
     1
 40
0.0
176
     1
 90
        0
176
     1
290
     0
176
     1
290
     1
176
     1
290
     1
176
     1
290
     0
176
     1
290
     0
176
     1
290
     0
176
     1
290
     0
176
     1
290
     0
176
     1
290
     0
176
     1
 90
       50
176
     1
 40
0.0
176
     1
 40
1.0
176
     1
 90
        0
176
     1
 62
    18
420
        0
176
     1
 90
       50
176
     1
 90
        3
176
     1
 62
     5
420
      255
176
     1
290
     0
176
     1
 90
       50
176
     1
 90
       50
176
     1
 90
       50
176
     1
290
     0
176
     1
 90
       50
176
     1
 62
   256
176
     0
 40
1.0
176
     0
 90
        2
176
     1
  1
strokes_ogs.tif
176
     1
290
     0
176
     1
 40
1.0
176
     1
 40
1.0
176
     1
  0
VISUALSTYLE
  5
739
102
{ACAD_REACTORS
330
72D
102
}
330
72D
100
AcDbVisualStyle
  2
Brighten
 70
    12
177
     3
291
     1
 70
    58
 90
        2
176
     1
 90
        2
176
     1
 90
        0
176
     1
 90
        0
176
     1
 40
-0.6
176
     1
 40
-30.0
176
     1
 62
     7
176
     1
 90
        1
176
     1
 90
        4
176
     1
 62
     7
176
     1
 62
   257
176
     1
 90
        1
176
     1
 90
        1
176
     1
 40
1.0
176
     1
 90
        8
176
     1
 62
     7
176
     1
 40
1.0
176
     1
 90
        1
176
     1
 90
        6
176
     1
 90
        2
176
     1
 62
     7
176
     1
 90
        5
176
     1
 90
        0
176
     1
 90
        0
176
     1
290
     0
176
     1
 90
        1
176
     1
 40
50.0
176
     1
 90
        0
176
     1
290
     0
176
     1
290
     1
176
     1
290
     1
176
     1
290
     0
176
     1
290
     0
176
     1
290
     0
176
     1
290
     0
176
     1
290
     0
176
     1
290
     0
176
     1
 90
       50
176
     1
 40
0.0
176
     1
 40
1.0
176
     1
 90
        0
176
     1
 62
    18
420
        0
176
     1
 90
       50
176
     1
 90
        3
176
     1
 62
     5
420
      255
176
     1
290
     0
176
     1
 90
       50
176
     1
 90
       50
176
     1
 90
       50
176
     1
290
     0
176
     1
 90
       50
176
     1
 62
   256
176
     0
 40
1.0
176
     0
 90
        2
176
     1
  1
strokes_ogs.tif
176
     1
290
     0
176
     1
 40
1.0
176
     1
 40
1.0
176
     1
  0
VISUALSTYLE
  5
73D
102
{ACAD_REACTORS
330
72D
102
}
330
72D
100
AcDbVisualStyle
  2
ColorChange
 70
    16
177
     3
291
     1
 70
    58
 90
        2
176
     1
 90
        2
176
     1
 90
        3
176
     1
 90
        0
176
     1
 40
-0.6
176
     1
 40
-30.0
176
     1
 62
     8
176
     1
 90
        1
176
     1
 90
        4
176
     1
 62
     7
176
     1
 62
   257
176
     1
 90
        1
176
     1
 90
        1
176
     1
 40
1.0
176
     1
 90
        8
176
     1
 62
     8
176
     1
 40
1.0
176
     1
 90
        1
176
     1
 90
        6
176
     1
 90
        2
176
     1
 62
     7
176
     1
 90
        5
176
     1
 90
        0
176
     1
 90
        0
176
     1
290
     0
176
     1
 90
        1
176
     1
 40
0.0
176
     1
 90
        0
176
     1
290
     0
176
     1
290
     1
176
     1
290
     1
176
     1
290
     0
176
     1
290
     0
176
     1
290
     0
176
     1
290
     0
176
     1
290
     0
176
     1
290
     0
176
     1
 90
       50
176
     1
 40
0.0
176
     1
 40
1.0
176
     1
 90
        0
176
     1
 62
    18
420
        0
176
     1
 90
       50
176
     1
 90
        3
176
     1
 62
     5
420
      255
176
     1
290
     0
176
     1
 90
       50
176
     1
 90
       50
176
     1
 90
       50
176
     1
290
     0
176
     1
 90
       50
176
     1
 62
   256
176
     0
 40
1.0
176
     0
 90
        2
176
     1
  1
strokes_ogs.tif
176
     1
290
     0
176
     1
 40
1.0
176
     1
 40
1.0
176
     1
  0
VISUALSTYLE
  5
736
102
{ACAD_REACTORS
330
72D
102
}
330
72D
100
AcDbVisualStyle
  2
Conceptual
 70
     9
177
     3
291
     0
 70
    58
 90
        3
176
     1
 90
        2
176
     1
 90
        0
176
     1
 90
        0
176
     1
 40
-0.6
176
     1
 40
-30.0
176
     1
 62
     7
176
     1
 90
        2
176
     1
 90
        2
176
     1
 62
     7
176
     1
 62
   257
176
     1
 90
        1
176
     1
 90
        1
176
     1
 40
40.0
176
     1
 90
        8
176
     1
 62
     7
176
     1
 40
1.0
176
     1
 90
        1
176
     1
 90
        6
176
     1
 90
        2
176
     1
 62
     7
176
     1
 90
        3
176
     1
 90
        0
176
     1
 90
        0
176
     1
290
     0
176
     1
 90
        1
176
     1
 40
0.0
176
     1
 90
        0
176
     1
290
     0
176
     1
290
     1
176
     1
290
     1
176
     1
290
     0
176
     1
290
     0
176
     1
290
     0
176
     1
290
     0
176
     1
290
     0
176
     1
290
     0
176
     1
 90
       50
176
     1
 40
0.0
176
     1
 40
1.0
176
     1
 90
        0
176
     1
 62
    18
420
        0
176
     1
 90
       50
176
     1
 90
        3
176
     1
 62
     5
420
      255
176
     1
290
     0
176
     1
 90
       50
176
     1
 90
       50
176
     1
 90
       50
176
     1
290
     0
176
     1
 90
       50
176
     1
 62
   256
176
     0
 40
1.0
176
     0
 90
        2
176
     1
  1
strokes_ogs.tif
176
     1
290
     0
176
     1
 40
1.0
176
     1
 40
1.0
176
     1
  0
VISUALSTYLE
  5
738
102
{ACAD_REACTORS
330
72D
102
}
330
72D
100
AcDbVisualStyle
  2
Dim
 70
    11
177
     3
291
     1
 70
    58
 90
        2
176
     1
 90
        2
176
     1
 90
        0
176
     1
 90
        0
176
     1
 40
-0.6
176
     1
 40
-30.0
176
     1
 62
     7
176
     1
 90
        1
176
     1
 90
        4
176
     1
 62
     7
176
     1
 62
   257
176
     1
 90
        1
176
     1
 90
        1
176
     1
 40
1.0
176
     1
 90
        8
176
     1
 62
     7
176
     1
 40
1.0
176
     1
 90
        1
176
     1
 90
        6
176
     1
 90
        2
176
     1
 62
     7
176
     1
 90
        5
176
     1
 90
        0
176
     1
 90
        0
176
     1
290
     0
176
     1
 90
        1
176
     1
 40
-50.0
176
     1
 90
        0
176
     1
290
     0
176
     1
290
     1
176
     1
290
     1
176
     1
290
     0
176
     1
290
     0
176
     1
290
     0
176
     1
290
     0
176
     1
290
     0
176
     1
290
     0
176
     1
 90
       50
176
     1
 40
0.0
176
     1
 40
1.0
176
     1
 90
        0
176
     1
 62
    18
420
        0
176
     1
 90
       50
176
     1
 90
        3
176
     1
 62
     5
420
      255
176
     1
290
     0
176
     1
 90
       50
176
     1
 90
       50
176
     1
 90
       50
176
     1
290
     0
176
     1
 90
       50
176
     1
 62
   256
176
     0
 40
1.0
176
     0
 90
        2
176
     1
  1
strokes_ogs.tif
176
     1
290
     0
176
     1
 40
1.0
176
     1
 40
1.0
176
     1
  0
VISUALSTYLE
  5
50A6
102
{ACAD_REACTORS
330
72D
102
}
330
72D
100
AcDbVisualStyle
  2
EdgeColorOff
 70
    22
177
     3
291
     1
 70
    58
 90
        2
176
     0
 90
        2
176
     0
 90
        0
176
     0
 90
        0
176
     0
 40
-0.6
176
     0
 40
-30.0
176
     0
 62
     7
420
 16777215
176
     0
 90
        1
176
     0
 90
        4
176
     0
 62
     7
176
     0
 62
   257
176
     0
 90
        1
176
     0
 90
        1
176
     0
 40
1.0
176
     0
 90
        8
176
     2
 62
     7
176
     0
 40
1.0
176
     0
 90
        1
176
     0
 90
        6
176
     0
 90
        2
176
     0
 62
     7
176
     0
 90
        5
176
     0
 90
        0
176
     0
 90
        0
176
     0
290
     0
176
     0
 90
        1
176
     0
 40
0.0
176
     0
 90
        0
176
     0
290
     0
176
     0
290
     1
176
     0
290
     1
176
     0
290
     0
176
     0
290
     0
176
     0
290
     0
176
     1
290
     0
176
     1
290
     0
176
     1
290
     0
176
     1
 90
       50
176
     1
 40
0.0
176
     1
 40
1.0
176
     1
 90
        0
176
     1
 62
    18
420
        0
176
     1
 90
       50
176
     1
 90
        3
176
     1
 62
     5
420
      255
176
     1
290
     0
176
     1
 90
       50
176
     1
 90
       50
176
     1
 90
       50
176
     1
290
     0
176
     1
 90
       50
176
     1
 62
   256
176
     0
 40
1.0
176
     0
 90
        2
176
     1
  1
strokes_ogs.tif
176
     1
290
     0
176
     1
 40
1.0
176
     1
 40
1.0
176
     1
  0
VISUALSTYLE
  5
73C
102
{ACAD_REACTORS
330
72D
102
}
330
72D
100
AcDbVisualStyle
  2
Facepattern
 70
    15
177
     3
291
     1
 70
    58
 90
        2
176
     1
 90
        2
176
     1
 90
        0
176
     1
 90
        0
176
     1
 40
-0.6
176
     1
 40
-30.0
176
     1
 62
     7
176
     1
 90
        1
176
     1
 90
        4
176
     1
 62
     7
176
     1
 62
   257
176
     1
 90
        1
176
     1
 90
        1
176
     1
 40
1.0
176
     1
 90
        8
176
     1
 62
     7
176
     1
 40
1.0
176
     1
 90
        1
176
     1
 90
        6
176
     1
 90
        2
176
     1
 62
     7
176
     1
 90
        5
176
     1
 90
        0
176
     1
 90
        0
176
     1
290
     0
176
     1
 90
        1
176
     1
 40
0.0
176
     1
 90
        0
176
     1
290
     0
176
     1
290
     1
176
     1
290
     1
176
     1
290
     0
176
     1
290
     0
176
     1
290
     0
176
     1
290
     0
176
     1
290
     0
176
     1
290
     0
176
     1
 90
       50
176
     1
 40
0.0
176
     1
 40
1.0
176
     1
 90
        0
176
     1
 62
    18
420
        0
176
     1
 90
       50
176
     1
 90
        3
176
     1
 62
     5
420
      255
176
     1
290
     0
176
     1
 90
       50
176
     1
 90
       50
176
     1
 90
       50
176
     1
290
     0
176
     1
 90
       50
176
     1
 62
   256
176
     0
 40
1.0
176
     0
 90
        2
176
     1
  1
strokes_ogs.tif
176
     1
290
     0
176
     1
 40
1.0
176
     1
 40
1.0
176
     1
  0
VISUALSTYLE
  5
72E
102
{ACAD_REACTORS
330
72D
102
}
330
72D
100
AcDbVisualStyle
  2
Flat
 70
     0
177
     3
291
     1
 70
    58
 90
        2
176
     1
 90
        1
176
     1
 90
        1
176
     1
 90
        2
176
     1
 40
-0.6
176
     1
 40
30.0
176
     1
 62
     7
176
     1
 90
        0
176
     1
 90
        4
176
     1
 62
     7
176
     1
 62
   257
176
     1
 90
        1
176
     1
 90
        1
176
     1
 40
1.0
176
     1
 90
        8
176
     1
 62
     7
176
     1
 40
1.0
176
     1
 90
        1
176
     1
 90
        6
176
     1
 90
        2
176
     1
 62
     7
176
     1
 90
        5
176
     1
 90
        0
176
     1
 90
        0
176
     1
290
     0
176
     1
 90
       13
176
     1
 40
0.0
176
     1
 90
        0
176
     1
290
     0
176
     1
290
     1
176
     1
290
     1
176
     1
290
     0
176
     1
290
     0
176
     1
290
     0
176
     1
290
     0
176
     1
290
     0
176
     1
290
     0
176
     1
 90
       50
176
     1
 40
0.0
176
     1
 40
1.0
176
     1
 90
        0
176
     1
 62
    18
420
        0
176
     1
 90
       50
176
     1
 90
        3
176
     1
 62
     5
420
      255
176
     1
290
     0
176
     1
 90
       50
176
     1
 90
       50
176
     1
 90
       50
176
     1
290
     0
176
     1
 90
       50
176
     1
 62
   256
176
     0
 40
1.0
176
     0
 90
        2
176
     1
  1
strokes_ogs.tif
176
     1
290
     0
176
     1
 40
1.0
176
     1
 40
1.0
176
     1
  0
VISUALSTYLE
  5
72F
102
{ACAD_REACTORS
330
72D
102
}
330
72D
100
AcDbVisualStyle
  2
FlatWithEdges
 70
     1
177
     3
291
     1
 70
    58
 90
        2
176
     1
 90
        1
176
     1
 90
        1
176
     1
 90
        2
176
     1
 40
-0.6
176
     1
 40
30.0
176
     1
 62
     7
176
     1
 90
        1
176
     1
 90
        4
176
     1
 62
     7
176
     1
 62
   257
176
     1
 90
        1
176
     1
 90
        1
176
     1
 40
1.0
176
     1
 90
        0
176
     1
 62
   257
176
     1
 40
1.0
176
     1
 90
        1
176
     1
 90
        6
176
     1
 90
        2
176
     1
 62
     7
176
     1
 90
        5
176
     1
 90
        0
176
     1
 90
        0
176
     1
290
     0
176
     1
 90
       13
176
     1
 40
0.0
176
     1
 90
        0
176
     1
290
     0
176
     1
290
     1
176
     1
290
     1
176
     1
290
     0
176
     1
290
     0
176
     1
290
     0
176
     1
290
     0
176
     1
290
     0
176
     1
290
     0
176
     1
 90
       50
176
     1
 40
0.0
176
     1
 40
1.0
176
     1
 90
        0
176
     1
 62
    18
420
        0
176
     1
 90
       50
176
     1
 90
        3
176
     1
 62
     5
420
      255
176
     1
290
     0
176
     1
 90
       50
176
     1
 90
       50
176
     1
 90
       50
176
     1
290
     0
176
     1
 90
       50
176
     1
 62
   256
176
     0
 40
1.0
176
     0
 90
        2
176
     1
  1
strokes_ogs.tif
176
     1
290
     0
176
     1
 40
1.0
176
     1
 40
1.0
176
     1
  0
VISUALSTYLE
  5
730
102
{ACAD_REACTORS
330
72D
102
}
330
72D
100
AcDbVisualStyle
  2
Gouraud
 70
     2
177
     3
291
     1
 70
    58
 90
        2
176
     1
 90
        2
176
     1
 90
        1
176
     1
 90
        2
176
     1
 40
-0.6
176
     1
 40
30.0
176
     1
 62
     7
176
     1
 90
        0
176
     1
 90
        4
176
     1
 62
     7
176
     1
 62
   257
176
     1
 90
        1
176
     1
 90
        1
176
     1
 40
1.0
176
     1
 90
        0
176
     1
 62
     7
176
     1
 40
1.0
176
     1
 90
        1
176
     1
 90
        6
176
     1
 90
        2
176
     1
 62
     7
176
     1
 90
        5
176
     1
 90
        0
176
     1
 90
        0
176
     1
290
     0
176
     1
 90
       13
176
     1
 40
0.0
176
     1
 90
        0
176
     1
290
     0
176
     1
290
     1
176
     1
290
     1
176
     1
290
     0
176
     1
290
     0
176
     1
290
     0
176
     1
290
     0
176
     1
290
     0
176
     1
290
     0
176
     1
 90
       50
176
     1
 40
0.0
176
     1
 40
1.0
176
     1
 90
        0
176
     1
 62
    18
420
        0
176
     1
 90
       50
176
     1
 90
        3
176
     1
 62
     5
420
      255
176
     1
290
     0
176
     1
 90
       50
176
     1
 90
       50
176
     1
 90
       50
176
     1
290
     0
176
     1
 90
       50
176
     1
 62
   256
176
     0
 40
1.0
176
     0
 90
        2
176
     1
  1
strokes_ogs.tif
176
     1
290
     0
176
     1
 40
1.0
176
     1
 40
1.0
176
     1
  0
VISUALSTYLE
  5
731
102
{ACAD_REACTORS
330
72D
102
}
330
72D
100
AcDbVisualStyle
  2
GouraudWithEdges
 70
     3
177
     3
291
     1
 70
    58
 90
        2
176
     1
 90
        2
176
     1
 90
        1
176
     1
 90
        2
176
     1
 40
-0.6
176
     1
 40
30.0
176
     1
 62
     7
176
     1
 90
        1
176
     1
 90
        4
176
     1
 62
     7
176
     1
 62
   257
176
     1
 90
        1
176
     1
 90
        1
176
     1
 40
1.0
176
     1
 90
        0
176
     1
 62
   257
176
     1
 40
1.0
176
     1
 90
        1
176
     1
 90
        6
176
     1
 90
        2
176
     1
 62
     7
176
     1
 90
        5
176
     1
 90
        0
176
     1
 90
        0
176
     1
290
     0
176
     1
 90
       13
176
     1
 40
0.0
176
     1
 90
        0
176
     1
290
     0
176
     1
290
     1
176
     1
290
     1
176
     1
290
     0
176
     1
290
     0
176
     1
290
     0
176
     1
290
     0
176
     1
290
     0
176
     1
290
     0
176
     1
 90
       50
176
     1
 40
0.0
176
     1
 40
1.0
176
     1
 90
        0
176
     1
 62
    18
420
        0
176
     1
 90
       50
176
     1
 90
        3
176
     1
 62
     5
420
      255
176
     1
290
     0
176
     1
 90
       50
176
     1
 90
       50
176
     1
 90
       50
176
     1
290
     0
176
     1
 90
       50
176
     1
 62
   256
176
     0
 40
1.0
176
     0
 90
        2
176
     1
  1
strokes_ogs.tif
176
     1
290
     0
176
     1
 40
1.0
176
     1
 40
1.0
176
     1
  0
VISUALSTYLE
  5
509E
102
{ACAD_REACTORS
330
72D
102
}
330
72D
100
AcDbVisualStyle
  2
Hidden
 70
     6
177
     3
291
     0
 70
    58
 90
        1
176
     1
 90
        2
176
     1
 90
        2
176
     1
 90
        0
176
     1
 40
-0.6
176
     1
 40
-30.0
176
     1
 62
     7
420
 16777215
176
     1
 90
        2
176
     1
 90
        2
176
     1
 62
     7
176
     1
 62
   257
176
     1
 90
        2
176
     1
 90
        1
176
     1
 40
40.0
176
     1
 90
        0
176
     1
 62
   257
176
     1
 40
1.0
176
     1
 90
        1
176
     1
 90
        6
176
     1
 90
        2
176
     1
 62
     7
176
     1
 90
        3
176
     1
 90
        0
176
     1
 90
        0
176
     1
290
     0
176
     1
 90
        1
176
     1
 40
0.0
176
     1
 90
        0
176
     1
290
     0
176
     1
290
     1
176
     1
290
     1
176
     1
290
     0
176
     1
290
     0
176
     1
290
     0
176
     1
290
     0
176
     1
290
     0
176
     1
290
     0
176
     1
 90
       50
176
     1
 40
0.0
176
     1
 40
1.0
176
     1
 90
        0
176
     1
 62
    18
420
        0
176
     1
 90
       50
176
     1
 90
        3
176
     1
 62
     5
420
      255
176
     1
290
     0
176
     1
 90
       50
176
     1
 90
       50
176
     1
 90
       50
176
     1
290
     0
176
     1
 90
       50
176
     1
 62
   256
176
     0
 40
1.0
176
     0
 90
        2
176
     1
  1
strokes_ogs.tif
176
     1
290
     0
176
     1
 40
1.0
176
     1
 40
1.0
176
     1
  0
VISUALSTYLE
  5
50A4
102
{ACAD_REACTORS
330
72D
102
}
330
72D
100
AcDbVisualStyle
  2
JitterOff
 70
    20
177
     3
291
     1
 70
    58
 90
        2
176
     0
 90
        2
176
     0
 90
        0
176
     0
 90
        0
176
     0
 40
-0.6
176
     0
 40
-30.0
176
     0
 62
     7
420
 16777215
176
     0
 90
        1
176
     0
 90
        4
176
     0
 62
     7
176
     0
 62
   257
176
     0
 90
        1
176
     0
 90
        1
176
     0
 40
1.0
176
     0
 90
       10
176
     2
 62
     7
176
     0
 40
1.0
176
     0
 90
        1
176
     0
 90
        6
176
     0
 90
        2
176
     0
 62
     7
176
     0
 90
        5
176
     0
 90
        0
176
     0
 90
        0
176
     0
290
     0
176
     0
 90
        1
176
     0
 40
0.0
176
     0
 90
        0
176
     0
290
     0
176
     0
290
     1
176
     0
290
     1
176
     0
290
     0
176
     0
290
     0
176
     0
290
     0
176
     1
290
     0
176
     1
290
     0
176
     1
290
     0
176
     1
 90
       50
176
     1
 40
0.0
176
     1
 40
1.0
176
     1
 90
        0
176
     1
 62
    18
420
        0
176
     1
 90
       50
176
     1
 90
        3
176
     1
 62
     5
420
      255
176
     1
290
     0
176
     1
 90
       50
176
     1
 90
       50
176
     1
 90
       50
176
     1
290
     0
176
     1
 90
       50
176
     1
 62
   256
176
     0
 40
1.0
176
     0
 90
        2
176
     1
  1
strokes_ogs.tif
176
     1
290
     0
176
     1
 40
1.0
176
     1
 40
1.0
176
     1
  0
VISUALSTYLE
  5
73B
102
{ACAD_REACTORS
330
72D
102
}
330
72D
100
AcDbVisualStyle
  2
Linepattern
 70
    14
177
     3
291
     1
 70
    58
 90
        2
176
     1
 90
        2
176
     1
 90
        0
176
     1
 90
        0
176
     1
 40
-0.6
176
     1
 40
-30.0
176
     1
 62
     7
176
     1
 90
        1
176
     1
 90
        4
176
     1
 62
     7
176
     1
 62
   257
176
     1
 90
        7
176
     1
 90
        7
176
     1
 40
1.0
176
     1
 90
        8
176
     1
 62
     7
176
     1
 40
1.0
176
     1
 90
        1
176
     1
 90
        6
176
     1
 90
        2
176
     1
 62
     7
176
     1
 90
        5
176
     1
 90
        0
176
     1
 90
        0
176
     1
290
     0
176
     1
 90
        1
176
     1
 40
0.0
176
     1
 90
        0
176
     1
290
     0
176
     1
290
     1
176
     1
290
     1
176
     1
290
     0
176
     1
290
     0
176
     1
290
     0
176
     1
290
     0
176
     1
290
     0
176
     1
290
     0
176
     1
 90
       50
176
     1
 40
0.0
176
     1
 40
1.0
176
     1
 90
        0
176
     1
 62
    18
420
        0
176
     1
 90
       50
176
     1
 90
        3
176
     1
 62
     5
420
      255
176
     1
290
     0
176
     1
 90
       50
176
     1
 90
       50
176
     1
 90
       50
176
     1
290
     0
176
     1
 90
       50
176
     1
 62
   256
176
     0
 40
1.0
176
     0
 90
        2
176
     1
  1
strokes_ogs.tif
176
     1
290
     0
176
     1
 40
1.0
176
     1
 40
1.0
176
     1
  0
VISUALSTYLE
  5
50A5
102
{ACAD_REACTORS
330
72D
102
}
330
72D
100
AcDbVisualStyle
  2
OverhangOff
 70
    21
177
     3
291
     1
 70
    58
 90
        2
176
     0
 90
        2
176
     0
 90
        0
176
     0
 90
        0
176
     0
 40
-0.6
176
     0
 40
-30.0
176
     0
 62
     7
420
 16777215
176
     0
 90
        1
176
     0
 90
        4
176
     0
 62
     7
176
     0
 62
   257
176
     0
 90
        1
176
     0
 90
        1
176
     0
 40
1.0
176
     0
 90
        9
176
     2
 62
     7
176
     0
 40
1.0
176
     0
 90
        1
176
     0
 90
        6
176
     0
 90
        2
176
     0
 62
     7
176
     0
 90
        5
176
     0
 90
        0
176
     0
 90
        0
176
     0
290
     0
176
     0
 90
        1
176
     0
 40
0.0
176
     0
 90
        0
176
     0
290
     0
176
     0
290
     1
176
     0
290
     1
176
     0
290
     0
176
     0
290
     0
176
     0
290
     0
176
     1
290
     0
176
     1
290
     0
176
     1
290
     0
176
     1
 90
       50
176
     1
 40
0.0
176
     1
 40
1.0
176
     1
 90
        0
176
     1
 62
    18
420
        0
176
     1
 90
       50
176
     1
 90
        3
176
     1
 62
     5
420
      255
176
     1
290
     0
176
     1
 90
       50
176
     1
 90
       50
176
     1
 90
       50
176
     1
290
     0
176
     1
 90
       50
176
     1
 62
   256
176
     0
 40
1.0
176
     0
 90
        2
176
     1
  1
strokes_ogs.tif
176
     1
290
     0
176
     1
 40
1.0
176
     1
 40
1.0
176
     1
  0
VISUALSTYLE
  5
737
102
{ACAD_REACTORS
330
72D
102
}
330
72D
100
AcDbVisualStyle
  2
Realistic
 70
     8
177
     3
291
     0
 70
    58
 90
        2
176
     1
 90
        2
176
     1
 90
        0
176
     1
 90
        0
176
     1
 40
-0.6
176
     1
 40
-30.0
176
     1
 62
     7
176
     1
 90
        1
176
     1
 90
        0
176
     1
 62
     7
176
     1
 62
   257
176
     1
 90
        1
176
     1
 90
        1
176
     1
 40
1.0
176
     1
 90
        8
176
     1
 62
     8
176
     1
 40
1.0
176
     1
 90
        1
176
     1
 90
        6
176
     1
 90
        2
176
     1
 62
     7
176
     1
 90
        5
176
     1
 90
        0
176
     1
 90
        0
176
     1
290
     0
176
     1
 90
       13
176
     1
 40
0.0
176
     1
 90
        0
176
     1
290
     0
176
     1
290
     1
176
     1
290
     1
176
     1
290
     0
176
     1
290
     0
176
     1
290
     0
176
     1
290
     0
176
     1
290
     0
176
     1
290
     0
176
     1
 90
       50
176
     1
 40
0.0
176
     1
 40
1.0
176
     1
 90
        0
176
     1
 62
    18
420
        0
176
     1
 90
       50
176
     1
 90
        3
176
     1
 62
     5
420
      255
176
     1
290
     0
176
     1
 90
       50
176
     1
 90
       50
176
     1
 90
       50
176
     1
290
     0
176
     1
 90
       50
176
     1
 62
   256
176
     0
 40
1.0
176
     0
 90
        2
176
     1
  1
strokes_ogs.tif
176
     1
290
     0
176
     1
 40
1.0
176
     1
 40
1.0
176
     1
  0
VISUALSTYLE
  5
50A3
102
{ACAD_REACTORS
330
72D
102
}
330
72D
100
AcDbVisualStyle
  2
Shaded
 70
    27
177
     3
291
     0
 70
    58
 90
        2
176
     1
 90
        2
176
     1
 90
        1
176
     1
 90
        2
176
     1
 40
-0.6
176
     1
 40
30.0
176
     1
 62
     7
420
 16777215
176
     1
 90
        0
176
     1
 90
        4
176
     1
 62
     7
176
     1
 62
   257
176
     1
 90
        1
176
     1
 90
        1
176
     1
 40
1.0
176
     1
 90
        8
176
     1
 62
   257
176
     1
 40
1.0
176
     1
 90
        1
176
     1
 90
        6
176
     1
 90
        2
176
     1
 62
     8
420
  7895160
176
     1
 90
        3
176
     1
 90
        0
176
     1
 90
        0
176
     1
290
     0
176
     1
 90
        5
176
     1
 40
0.0
176
     1
 90
        0
176
     1
290
     0
176
     1
290
     1
176
     1
290
     1
176
     1
290
     0
176
     1
290
     0
176
     1
290
     0
176
     1
290
     0
176
     1
290
     0
176
     1
290
     0
176
     1
 90
       50
176
     1
 40
0.0
176
     1
 40
1.0
176
     1
 90
        0
176
     1
 62
    18
420
        0
176
     1
 90
       50
176
     1
 90
        3
176
     1
 62
     5
420
      255
176
     1
290
     0
176
     1
 90
       50
176
     1
 90
       50
176
     1
 90
       50
176
     1
290
     0
176
     1
 90
       50
176
     1
 62
   256
176
     0
 40
1.0
176
     0
 90
        2
176
     1
  1
strokes_ogs.tif
176
     1
290
     0
176
     1
 40
1.0
176
     1
 40
1.0
176
     1
  0
VISUALSTYLE
  5
50A2
102
{ACAD_REACTORS
330
72D
102
}
330
72D
100
AcDbVisualStyle
  2
Shaded with edges
 70
    26
177
     3
291
     0
 70
    58
 90
        2
176
     1
 90
        2
176
     1
 90
        1
176
     1
 90
        2
176
     1
 40
-0.6
176
     1
 40
30.0
176
     1
 62
     7
420
 16777215
176
     1
 90
        1
176
     1
 90
       10
176
     1
 62
     7
176
     1
 62
   257
176
     1
 90
        2
176
     1
 90
        1
176
     1
 40
1.0
176
     1
 90
        8
176
     1
 62
   257
176
     1
 40
1.0
176
     1
 90
        1
176
     1
 90
        6
176
     1
 90
        2
176
     1
 62
     7
176
     1
 90
        3
176
     1
 90
        0
176
     1
 90
        0
176
     1
290
     0
176
     1
 90
        5
176
     1
 40
0.0
176
     1
 90
        0
176
     1
290
     0
176
     1
290
     1
176
     1
290
     1
176
     1
290
     0
176
     1
290
     0
176
     1
290
     0
176
     1
290
     0
176
     1
290
     0
176
     1
290
     0
176
     1
 90
       50
176
     1
 40
0.0
176
     1
 40
1.0
176
     1
 90
        0
176
     1
 62
    18
420
        0
176
     1
 90
       50
176
     1
 90
        3
176
     1
 62
     5
420
      255
176
     1
290
     0
176
     1
 90
       50
176
     1
 90
       50
176
     1
 90
       50
176
     1
290
     0
176
     1
 90
       50
176
     1
 62
   256
176
     0
 40
1.0
176
     0
 90
        2
176
     1
  1
strokes_ogs.tif
176
     1
290
     0
176
     1
 40
1.0
176
     1
 40
1.0
176
     1
  0
VISUALSTYLE
  5
509F
102
{ACAD_REACTORS
330
72D
102
}
330
72D
100
AcDbVisualStyle
  2
Shades of Gray
 70
    23
177
     3
291
     0
 70
    58
 90
        2
176
     1
 90
        2
176
     1
 90
        3
176
     1
 90
        0
176
     1
 40
-0.6
176
     1
 40
-30.0
176
     1
 62
     7
420
 16777215
176
     1
 90
        2
176
     1
 90
        2
176
     1
 62
     7
176
     1
 62
     7
176
     1
 90
        1
176
     1
 90
        1
176
     1
 40
40.0
176
     1
 90
        8
176
     1
 62
     7
176
     1
 40
1.0
176
     1
 90
        1
176
     1
 90
        6
176
     1
 90
        2
176
     1
 62
     7
176
     1
 90
        3
176
     1
 90
        0
176
     1
 90
        0
176
     1
290
     0
176
     1
 90
        1
176
     1
 40
0.0
176
     1
 90
        0
176
     1
290
     0
176
     1
290
     1
176
     1
290
     1
176
     1
290
     0
176
     1
290
     0
176
     1
290
     0
176
     1
290
     0
176
     1
290
     0
176
     1
290
     0
176
     1
 90
       50
176
     1
 40
0.0
176
     1
 40
1.0
176
     1
 90
        0
176
     1
 62
    18
420
        0
176
     1
 90
       50
176
     1
 90
        3
176
     1
 62
     5
420
      255
176
     1
290
     0
176
     1
 90
       50
176
     1
 90
       50
176
     1
 90
       50
176
     1
290
     0
176
     1
 90
       50
176
     1
 62
   256
176
     0
 40
1.0
176
     0
 90
        2
176
     1
  1
strokes_ogs.tif
176
     1
290
     0
176
     1
 40
1.0
176
     1
 40
1.0
176
     1
  0
VISUALSTYLE
  5
50A0
102
{ACAD_REACTORS
330
72D
102
}
330
72D
100
AcDbVisualStyle
  2
Sketchy
 70
    24
177
     3
291
     0
 70
    58
 90
        1
176
     1
 90
        2
176
     1
 90
        2
176
     1
 90
        0
176
     1
 40
-0.6
176
     1
 40
-30.0
176
     1
 62
     7
420
 16777215
176
     1
 90
        2
176
     1
 90
        2
176
     1
 62
     7
176
     1
 62
     7
176
     1
 90
        1
176
     1
 90
        1
176
     1
 40
40.0
176
     1
 90
       11
176
     1
 62
     7
176
     1
 40
1.0
176
     1
 90
        1
176
     1
 90
        6
176
     1
 90
        2
176
     1
 62
     7
176
     1
 90
        6
176
     1
 90
        0
176
     1
 90
        0
176
     1
290
     0
176
     1
 90
        1
176
     1
 40
0.0
176
     1
 90
        0
176
     1
290
     0
176
     1
290
     1
176
     1
290
     1
176
     1
290
     0
176
     1
290
     0
176
     1
290
     0
176
     1
290
     0
176
     1
290
     0
176
     1
290
     0
176
     1
 90
       50
176
     1
 40
0.0
176
     1
 40
1.0
176
     1
 90
        0
176
     1
 62
    18
420
        0
176
     1
 90
       50
176
     1
 90
        3
176
     1
 62
     5
420
      255
176
     1
290
     0
176
     1
 90
       50
176
     1
 90
       50
176
     1
 90
       50
176
     1
290
     0
176
     1
 90
       50
176
     1
 62
   256
176
     0
 40
1.0
176
     0
 90
        2
176
     1
  1
strokes_ogs.tif
176
     1
290
     0
176
     1
 40
1.0
176
     1
 40
1.0
176
     1
  0
VISUALSTYLE
  5
73A
102
{ACAD_REACTORS
330
72D
102
}
330
72D
100
AcDbVisualStyle
  2
Thicken
 70
    13
177
     3
291
     1
 70
    58
 90
        2
176
     1
 90
        2
176
     1
 90
        0
176
     1
 90
        0
176
     1
 40
-0.6
176
     1
 40
-30.0
176
     1
 62
     7
176
     1
 90
        1
176
     1
 90
        4
176
     1
 62
     7
176
     1
 62
   257
176
     1
 90
        1
176
     1
 90
        1
176
     1
 40
1.0
176
     1
 90
       12
176
     1
 62
     7
176
     1
 40
1.0
176
     1
 90
        1
176
     1
 90
        6
176
     1
 90
        2
176
     1
 62
     7
176
     1
 90
        5
176
     1
 90
        0
176
     1
 90
        0
176
     1
290
     0
176
     1
 90
        1
176
     1
 40
0.0
176
     1
 90
        0
176
     1
290
     0
176
     1
290
     1
176
     1
290
     1
176
     1
290
     0
176
     1
290
     0
176
     1
290
     0
176
     1
290
     0
176
     1
290
     0
176
     1
290
     0
176
     1
 90
       50
176
     1
 40
0.0
176
     1
 40
1.0
176
     1
 90
        0
176
     1
 62
    18
420
        0
176
     1
 90
       50
176
     1
 90
        3
176
     1
 62
     5
420
      255
176
     1
290
     0
176
     1
 90
       50
176
     1
 90
       50
176
     1
 90
       50
176
     1
290
     0
176
     1
 90
       50
176
     1
 62
   256
176
     0
 40
1.0
176
     0
 90
        2
176
     1
  1
strokes_ogs.tif
176
     1
290
     0
176
     1
 40
1.0
176
     1
 40
1.0
176
     1
  0
VISUALSTYLE
  5
509D
102
{ACAD_REACTORS
330
72D
102
}
330
72D
100
AcDbVisualStyle
  2
Wireframe
 70
     5
177
     3
291
     0
 70
    58
 90
        0
176
     1
 90
        2
176
     1
 90
        0
176
     1
 90
        0
176
     1
 40
-0.6
176
     1
 40
-30.0
176
     1
 62
     7
420
 16777215
176
     1
 90
        1
176
     1
 90
        4
176
     1
 62
     7
176
     1
 62
   257
176
     1
 90
        1
176
     1
 90
        1
176
     1
 40
1.0
176
     1
 90
        0
176
     1
 62
   257
176
     1
 40
1.0
176
     1
 90
        1
176
     1
 90
        6
176
     1
 90
        2
176
     1
 62
     7
176
     1
 90
        3
176
     1
 90
        0
176
     1
 90
        0
176
     1
290
     0
176
     1
 90
        1
176
     1
 40
0.0
176
     1
 90
        0
176
     1
290
     0
176
     1
290
     1
176
     1
290
     1
176
     1
290
     0
176
     1
290
     0
176
     1
290
     0
176
     1
290
     0
176
     1
290
     0
176
     1
290
     0
176
     1
 90
       50
176
     1
 40
0.0
176
     1
 40
1.0
176
     1
 90
        0
176
     1
 62
    18
420
        0
176
     1
 90
       50
176
     1
 90
        3
176
     1
 62
     5
420
      255
176
     1
290
     0
176
     1
 90
       50
176
     1
 90
       50
176
     1
 90
       50
176
     1
290
     0
176
     1
 90
       50
176
     1
 62
   256
176
     0
 40
1.0
176
     0
 90
        2
176
     1
  1
strokes_ogs.tif
176
     1
290
     0
176
     1
 40
1.0
176
     1
 40
1.0
176
     1
  0
VISUALSTYLE
  5
50A1
102
{ACAD_REACTORS
330
72D
102
}
330
72D
100
AcDbVisualStyle
  2
X-Ray
 70
    25
177
     3
291
     0
 70
    58
 90
        2
176
     1
 90
        2
176
     1
 90
        1
176
     1
 90
        1
176
     1
 40
0.5
176
     1
 40
-30.0
176
     1
 62
     7
420
 16777215
176
     1
 90
        1
176
     1
 90
        0
176
     1
 62
     7
176
     1
 62
   257
176
     1
 90
        1
176
     1
 90
        1
176
     1
 40
1.0
176
     1
 90
        8
176
     1
 62
     7
176
     1
 40
1.0
176
     1
 90
        1
176
     1
 90
        6
176
     1
 90
        2
176
     1
 62
     7
176
     1
 90
        3
176
     1
 90
        0
176
     1
 90
        0
176
     1
290
     0
176
     1
 90
       13
176
     1
 40
0.0
176
     1
 90
        0
176
     1
290
     0
176
     1
290
     1
176
     1
290
     1
176
     1
290
     0
176
     1
290
     0
176
     1
290
     0
176
     1
290
     0
176
     1
290
     0
176
     1
290
     0
176
     1
 90
       50
176
     1
 40
0.0
176
     1
 40
1.0
176
     1
 90
        0
176
     1
 62
    18
420
        0
176
     1
 90
       50
176
     1
 90
        3
176
     1
 62
     5
420
      255
176
     1
290
     0
176
     1
 90
       50
176
     1
 90
       50
176
     1
 90
       50
176
     1
290
     0
176
     1
 90
       50
176
     1
 62
   256
176
     0
 40
1.0
176
     0
 90
        2
176
     1
  1
strokes_ogs.tif
176
     1
290
     0
176
     1
 40
1.0
176
     1
 40
1.0
176
     1
  0
DICTIONARYVAR
  5
5087
102
{ACAD_REACTORS
330
726
102
}
330
726
100
DictionaryVariables
280
     0
  1
1:1
  0
DICTIONARYVAR
  5
5086
102
{ACAD_REACTORS
330
726
102
}
330
726
100
DictionaryVariables
280
     0
  1
Standard
  0
DICTIONARYVAR
  5
1258
102
{ACAD_REACTORS
330
726
102
}
330
726
100
DictionaryVariables
280
     0
  1
Standard
  0
DICTIONARYVAR
  5
727
102
{ACAD_REACTORS
330
726
102
}
330
726
100
DictionaryVariables
280
     0
  1
1
  0
DICTIONARYVAR
  5
136C
102
{ACAD_REACTORS
330
726
102
}
330
726
100
DictionaryVariables
280
     0
  1
0
  0
DICTIONARYVAR
  5
6261
102
{ACAD_REACTORS
330
726
102
}
330
726
100
DictionaryVariables
280
     0
  1
0
  0
DICTIONARYVAR
  5
136B
102
{ACAD_REACTORS
330
726
102
}
330
726
100
DictionaryVariables
280
     0
  1
127
  0
DICTIONARYVAR
  5
625C
102
{ACAD_REACTORS
330
726
102
}
330
726
100
DictionaryVariables
280
     0
  1
2
  0
DICTIONARY
  5
625E
330
740
100
AcDbDictionary
280
     1
281
     1
  3
ACAD_ROUNDTRIP_2008_TABLESTYLE_CELLSTYLEMAP
360
625F
  0
CELLSTYLEMAP
  5
625F
102
{ACAD_REACTORS
330
625E
102
}
330
625E
100
AcDbCellStyleMap
 90
        3
300
CELLSTYLE
  1
TABLEFORMAT_BEGIN
 90
        5
170
     1
 91
        0
 92
    32768
 62
   257
 93
        1
300
CONTENTFORMAT
  1
CONTENTFORMAT_BEGIN
 90
        0
 91
        0
 92
      512
 93
        0
300

 40
0.0
140
1.0
 94
        5
 62
     0
340
E
144
0.25
309
CONTENTFORMAT_END
171
     0
 94
        6
 95
        1
302
GRIDFORMAT
  1
GRIDFORMAT_BEGIN
 90
        0
 91
        1
 62
     0
 92
       -2
340
0
 93
        0
 40
0.045
309
GRIDFORMAT_END
 95
        2
302
GRIDFORMAT
  1
GRIDFORMAT_BEGIN
 90
        0
 91
        1
 62
     0
 92
       -2
340
0
 93
        0
 40
0.045
309
GRIDFORMAT_END
 95
        4
302
GRIDFORMAT
  1
GRIDFORMAT_BEGIN
 90
        0
 91
        1
 62
     0
 92
       -2
340
0
 93
        0
 40
0.045
309
GRIDFORMAT_END
 95
        8
302
GRIDFORMAT
  1
GRIDFORMAT_BEGIN
 90
        0
 91
        1
 62
     0
 92
       -2
340
0
 93
        0
 40
0.045
309
GRIDFORMAT_END
 95
       16
302
GRIDFORMAT
  1
GRIDFORMAT_BEGIN
 90
        0
 91
        1
 62
     0
 92
       -2
340
0
 93
        0
 40
0.045
309
GRIDFORMAT_END
 95
       32
302
GRIDFORMAT
  1
GRIDFORMAT_BEGIN
 90
        0
 91
        1
 62
     0
 92
       -2
340
0
 93
        0
 40
0.045
309
GRIDFORMAT_END
309
TABLEFORMAT_END
  1
CELLSTYLE_BEGIN
 90
        1
 91
        1
300
_TITLE
309
CELLSTYLE_END
300
CELLSTYLE
  1
TABLEFORMAT_BEGIN
 90
        5
170
     1
 91
        0
 92
        0
 62
   257
 93
        1
300
CONTENTFORMAT
  1
CONTENTFORMAT_BEGIN
 90
        0
 91
        0
 92
      512
 93
        0
300

 40
0.0
140
1.0
 94
        5
 62
     0
340
E
144
0.18
309
CONTENTFORMAT_END
171
     0
 94
        6
 95
        1
302
GRIDFORMAT
  1
GRIDFORMAT_BEGIN
 90
        0
 91
        1
 62
     0
 92
       -2
340
0
 93
        0
 40
0.045
309
GRIDFORMAT_END
 95
        2
302
GRIDFORMAT
  1
GRIDFORMAT_BEGIN
 90
        0
 91
        1
 62
     0
 92
       -2
340
0
 93
        0
 40
0.045
309
GRIDFORMAT_END
 95
        4
302
GRIDFORMAT
  1
GRIDFORMAT_BEGIN
 90
        0
 91
        1
 62
     0
 92
       -2
340
0
 93
        0
 40
0.045
309
GRIDFORMAT_END
 95
        8
302
GRIDFORMAT
  1
GRIDFORMAT_BEGIN
 90
        0
 91
        1
 62
     0
 92
       -2
340
0
 93
        0
 40
0.045
309
GRIDFORMAT_END
 95
       16
302
GRIDFORMAT
  1
GRIDFORMAT_BEGIN
 90
        0
 91
        1
 62
     0
 92
       -2
340
0
 93
        0
 40
0.045
309
GRIDFORMAT_END
 95
       32
302
GRIDFORMAT
  1
GRIDFORMAT_BEGIN
 90
        0
 91
        1
 62
     0
 92
       -2
340
0
 93
        0
 40
0.045
309
GRIDFORMAT_END
309
TABLEFORMAT_END
  1
CELLSTYLE_BEGIN
 90
        2
 91
        1
300
_HEADER
309
CELLSTYLE_END
300
CELLSTYLE
  1
TABLEFORMAT_BEGIN
 90
        5
170
     1
 91
        0
 92
        0
 62
   257
 93
        1
300
CONTENTFORMAT
  1
CONTENTFORMAT_BEGIN
 90
        0
 91
        0
 92
      512
 93
        0
300

 40
0.0
140
1.0
 94
        2
 62
     0
340
E
144
0.18
309
CONTENTFORMAT_END
171
     0
 94
        6
 95
        1
302
GRIDFORMAT
  1
GRIDFORMAT_BEGIN
 90
        0
 91
        1
 62
     0
 92
       -2
340
0
 93
        0
 40
0.045
309
GRIDFORMAT_END
 95
        2
302
GRIDFORMAT
  1
GRIDFORMAT_BEGIN
 90
        0
 91
        1
 62
     0
 92
       -2
340
0
 93
        0
 40
0.045
309
GRIDFORMAT_END
 95
        4
302
GRIDFORMAT
  1
GRIDFORMAT_BEGIN
 90
        0
 91
        1
 62
     0
 92
       -2
340
0
 93
        0
 40
0.045
309
GRIDFORMAT_END
 95
        8
302
GRIDFORMAT
  1
GRIDFORMAT_BEGIN
 90
        0
 91
        1
 62
     0
 92
       -2
340
0
 93
        0
 40
0.045
309
GRIDFORMAT_END
 95
       16
302
GRIDFORMAT
  1
GRIDFORMAT_BEGIN
 90
        0
 91
        1
 62
     0
 92
       -2
340
0
 93
        0
 40
0.045
309
GRIDFORMAT_END
 95
       32
302
GRIDFORMAT
  1
GRIDFORMAT_BEGIN
 90
        0
 91
        1
 62
     0
 92
       -2
340
0
 93
        0
 40
0.045
309
GRIDFORMAT_END
309
TABLEFORMAT_END
  1
CELLSTYLE_BEGIN
 90
        3
 91
        2
300
_DATA
309
CELLSTYLE_END
  0
ENDSEC
  0
SECTION
  2
ACDSDATA
 70
     2
 71
     2
  0
ACDSSCHEMA
 90
        0
  1
AcDb_Thumbnail_Schema
  2
AcDbDs::ID
280
    10
 91
        8
  2
Thumbnail_Data
280
    15
 91
        0
101
ACDSRECORD
 95
        0
 90
        2
  2
AcDbDs::TreatedAsObjectData
280
     1
291
     1
101
ACDSRECORD
 95
        0
 90
        3
  2
AcDbDs::Legacy
280
     1
291
     1
101
ACDSRECORD
  1
AcDbDs::ID
 90
        4
  2
AcDs:Indexable
280
     1
291
     1
101
ACDSRECORD
  1
AcDbDs::ID
 90
        5
  2
AcDbDs::HandleAttribute
280
     7
282
     1
  0
ACDSSCHEMA
 90
        1
  1
AcDb3DSolid_ASM_Data
  2
AcDbDs::ID
280
    10
 91
        8
  2
ASM_Data
280
    15
 91
        0
101
ACDSRECORD
 95
        1
 90
        2
  2
AcDbDs::TreatedAsObjectData
280
     1
291
     1
101
ACDSRECORD
 95
        1
 90
        3
  2
AcDbDs::Legacy
280
     1
291
     1
101
ACDSRECORD
  1
AcDbDs::ID
 90
        4
  2
AcDs:Indexable
280
     1
291
     1
101
ACDSRECORD
  1
AcDbDs::ID
 90
        5
  2
AcDbDs::HandleAttribute
280
     7
282
     1
  0
ACDSSCHEMA
 90
        2
  1
AcDbDs::TreatedAsObjectDataSchema
  2
AcDbDs::TreatedAsObjectData
280
     1
 91
        0
  0
ACDSSCHEMA
 90
        3
  1
AcDbDs::LegacySchema
  2
AcDbDs::Legacy
280
     1
 91
        0
  0
ACDSSCHEMA
 90
        4
  1
AcDbDs::IndexedPropertySchema
  2
AcDs:Indexable
280
     1
 91
        0
  0
ACDSSCHEMA
 90
        5
  1
AcDbDs::HandleAttributeSchema
  2
AcDbDs::HandleAttribute
280
     7
 91
        1
284
     1
  0
ACDSRECORD
 90
        0
  2
AcDbDs::ID
280
    10
320
71E
  2
Thumbnail_Data
280
    15
 94
     2206
310
89504E470D0A1A0A0000000D4948445200000100000000700803000000C6F95E2100000300504C5445212830000000FFFFFF0000000000000000000000000000000000000000000000000000330000660000990000CC0000FF0033000033330033660033990033CC0033FF0066000066330066660066990066CC0066FF0099
310
000099330099660099990099CC0099FF00CC0000CC3300CC6600CC9900CCCC00CCFF00FF0000FF3300FF6600FF9900FFCC00FFFF3300003300333300663300993300CC3300FF3333003333333333663333993333CC3333FF3366003366333366663366993366CC3366FF3399003399333399663399993399CC3399FF33CC00
310
33CC3333CC6633CC9933CCCC33CCFF33FF0033FF3333FF6633FF9933FFCC33FFFF6600006600336600666600996600CC6600FF6633006633336633666633996633CC6633FF6666006666336666666666996666CC6666FF6699006699336699666699996699CC6699FF66CC0066CC3366CC6666CC9966CCCC66CCFF66FF0066
310
FF3366FF6666FF9966FFCC66FFFF9900009900339900669900999900CC9900FF9933009933339933669933999933CC9933FF9966009966339966669966999966CC9966FF9999009999339999669999999999CC9999FF99CC0099CC3399CC6699CC9999CCCC99CCFF99FF0099FF3399FF6699FF9999FFCC99FFFFCC0000CC00
310
33CC0066CC0099CC00CCCC00FFCC3300CC3333CC3366CC3399CC33CCCC33FFCC6600CC6633CC6666CC6699CC66CCCC66FFCC9900CC9933CC9966CC9999CC99CCCC99FFCCCC00CCCC33CCCC66CCCC99CCCCCCCCCCFFCCFF00CCFF33CCFF66CCFF99CCFFCCCCFFFFFF0000FF0033FF0066FF0099FF00CCFF00FFFF3300FF3333
310
FF3366FF3399FF33CCFF33FFFF6600FF6633FF6666FF6699FF66CCFF66FFFF9900FF9933FF9966FF9999FF99CCFF99FFFFCC00FFCC33FFCC66FFCC99FFCCCCFFCCFFFFFF00FFFF33FFFF66FFFF99FFFFCCFFFFFF0000000D0D0D1A1A1A2828283535354343435050505D5D5D6B6B6B787878868686939393A1A1A1AEAEAEBB
310
BBBBC9C9C9D6D6D6E4E4E4F1F1F1FFFFFF0000000000000000000000000000000000000000000000000000000000007BFF0FCC000000097048597300000EC400000EC401952B0E1B0000054449444154789CED5D59B2E32A0CD50EB492ECFF8F5DE9FF053420089ED2DD2F16E6D4AD94076CE05880044217E02CE86C4204C4
310
9CFE0D2C47F91A62F77C3945A2F44E0594D39DCEE047385F3E74140073F041009F21159AA030350F0146015629E808204D8729DFC7AB19FC02D7CA2714F017C622011E9A4A7E8310F0329C492FED9F5B399ECAE0DE7897EF4AFD0B0345F80B05744C410402CA1F9C248029A803C2890C6E8DCB129081D610B82BE86EBF7CAB
310
0A41C03509C8E05A93AA05D84B42E5330401572500B41D48EFAF2A82213519DC1ADF978F3F7BAE7F1229B077F29048D114A16FBA0200301D4029A02C0144404154E1D718A79E6E28D0DEB01000CF20C0690504643A5246F99D8080111F4D1A64AD5F87834CC6932420833B4054A5683E02D2E0B1F61A56F5508DE16C0D0719
310
05B60990712EA1412A2A7680D780EA28C81A12CC4040BE2DF22C331DF2081609F0D700C051218D229C393C22802D7E6809202CBA4F69E347D6500002F8C0CC01AEFC4BEEAA9AC3937D762DF1B8075310B023014F2720EB335CD9F791B4F2E401D09B81830CEE8D2B12800309989E0054D32E9F32013A0C3EA00994E217AD46
310
4601D602744A749651600CA9ACEA014EE919E9067B19DC1B87E5ABF31D55D91B5DFB3A831F838E914EA4D9C1AF6B78803FABDC226011109D807F5FFFDB13F0EB122C2C2C2C2C2C2C2C2C2C2C2C2C2C2CFCDF78FC84C8E3A7C4FEFDB47D580236168CF6D6D1AE657013FC1D027618084BC077F864243801C30FDC7FF87EEB90
310
43042FB1318E163D1B521036FAFBA804D0F1AA77831908681DFEA1DF11AA37C437448E8B909BAB70680212EA4E47E2E5A22DC9A82E92A6E77C12608EB471088054763C00D13E01D90B9E9F422F01E808602991E3300420A494773CD8671D959BB2D75C92DB58CE8C005B661429919340046421909A6F1040404240CA1E62BE
310
095402CA4F6D265108100F407386B12FA8B2CE499580F2DD4502D2140480EC89D60A6A45F221D7B4244D46402701EA37DA3892422802241800D7B54A40AAAE92B90B300292297F09E79000D060006D1348B2218A07C8D43581723E49138022CAC45BFEA8234676C7491FC06EB28D1EF0390A4424008AF32BB15FE8CE3098A4
310
910C3B41F123D5935804688189EB364C6C8A90CA804880D304CB30E9DF776B74E5ABC3E048B96FBC847754E1FA403402904D7825803ECC62AFE64E650C15D4FDF015DBF302587FA720A0DD078D2604081B3EE1D5591CA720C05F23D9084B56AF5DB7F8E9A6C44A1F20B3039582DDD7E006624E8A8ABDEBA264FCE50CEE846D
310
024C05FC330A6E4EC0B866A60AAB12BCC7C16081C49FDF9C80CDB93F3393C12206410D20D461BC76B093C18D70583EADF35B03D2107AFDEDB6D793C4F937C6F6F943684F90AD5F3E77779A41CFF697B3BE182482C409A810881EEC8225740A8027802622A05290E78E9BB811CDF3125D0E490CE78908A8AA7252FB070E628A
310
CE2501E085209D8D290A73748206A100550AB6638AE659830983AAD6187229EDC614956E225C109533E9BD6A384B4CD16BC08B140420E08A0064382BF1D931456B57D0DD6E8CA308045C8C2A9BA1CE1416526B2F835BE32B09003F1EB0C2F7E498A2A98930027579319A1EF04D5700D21548A0397E253D2FA6A8371080660B
310
A8B8075D191003A15CE298A238494CD143A0AE8D25D47F3F00620A4C2101233EBA342C05D60D4E46009C8B29EA8681783145F9A009A8F832B5C80F73FAA169185354DFF8D498A28E0AB586C399C30DB41AACD5D47592C7449303ADAB63E0712135CD77F8A90424F39D7D6C4CD146021E195374D004CC4B78FE26E05C86D451
310
A6F68CD38F027C9B3791344A8FDB55003310B005F9DC31638AFE07802AFFA38A32D6A00000000049454E44AE426082
  0
ACDSRECORD
 90
        0
  2
AcDbDs::ID
280
    10
320
71F
  2
Thumbnail_Data
280
    15
 94
     4408
310
89504E470D0A1A0A0000000D4948445200000100000000B408030000004C80028300000300504C5445FFFFFF000000FFFFFF0000000000000000000000000000000000000000000000000000330000660000990000CC0000FF0033000033330033660033990033CC0033FF0066000066330066660066990066CC0066FF0099
310
000099330099660099990099CC0099FF00CC0000CC3300CC6600CC9900CCCC00CCFF00FF0000FF3300FF6600FF9900FFCC00FFFF3300003300333300663300993300CC3300FF3333003333333333663333993333CC3333FF3366003366333366663366993366CC3366FF3399003399333399663399993399CC3399FF33CC00
310
33CC3333CC6633CC9933CCCC33CCFF33FF0033FF3333FF6633FF9933FFCC33FFFF6600006600336600666600996600CC6600FF6633006633336633666633996633CC6633FF6666006666336666666666996666CC6666FF6699006699336699666699996699CC6699FF66CC0066CC3366CC6666CC9966CCCC66CCFF66FF0066
310
FF3366FF6666FF9966FFCC66FFFF9900009900339900669900999900CC9900FF9933009933339933669933999933CC9933FF9966009966339966669966999966CC9966FF9999009999339999669999999999CC9999FF99CC0099CC3399CC6699CC9999CCCC99CCFF99FF0099FF3399FF6699FF9999FFCC99FFFFCC0000CC00
310
33CC0066CC0099CC00CCCC00FFCC3300CC3333CC3366CC3399CC33CCCC33FFCC6600CC6633CC6666CC6699CC66CCCC66FFCC9900CC9933CC9966CC9999CC99CCCC99FFCCCC00CCCC33CCCC66CCCC99CCCCCCCCCCFFCCFF00CCFF33CCFF66CCFF99CCFFCCCCFFFFFF0000FF0033FF0066FF0099FF00CCFF00FFFF3300FF3333
310
FF3366FF3399FF33CCFF33FFFF6600FF6633FF6666FF6699FF66CCFF66FFFF9900FF9933FF9966FF9999FF99CCFF99FFFFCC00FFCC33FFCC66FFCC99FFCCCCFFCCFFFFFF00FFFF33FFFF66FFFF99FFFFCCFFFFFF0000000D0D0D1A1A1A2828283535354343435050505D5D5D6B6B6B787878868686939393A1A1A1AEAEAEBB
310
BBBBC9C9C9D6D6D6E4E4E4F1F1F1FFFFFF000000000000000000000000000000000000000000000000000000000000790CAC0F000000097048597300000EC400000EC401952B0E1B00000DDE49444154789CED9D5B9AAB281080D9012BE9FDBFB1976125D342DD010514B59353F3CDE94401A9DFBA7031898B5F2DFFFDE7F8
310
8D43B1A53EF84406E0BE543295F8BD040840612BDF210AC0D337E301F907E01F807F00AE02F09304FE6CAFF0A5FBC9E775D17424154F07F2513A49A71D36EAA81814FD912D4E0B037057036012785497A4E2CE7135E750677C81309DB3657FAE01E05602C837ED47F6DA68C6F737939267DD8F3001C72F128E6BF4BF128033
310
DAAB9EAB0E57CCC48152AE6101849359BD0E40A1D47A791700100A54BB65E0B6D201AEAA2BA3F7AB23F0B779911152D70378818CD8CA470200E9729285002E77D7990E1C167A1D80CE68E7B3D849DD886CF52580CB87C27311BB37DEFBF4AF0430D8BD98DB583E179836FE03686F03E0B34195F23500E6AB9EB9E00B00401D
310
7F770A7D19003F7CFDB3721B80966F8B76DC050062837E2D77A50EDD05C093B4DB492D9D01B05D3CD41940E7B07F88FB0917681088E6EFB080DE21BF2E9B97FADF0F4018C01A0074CD60DED379DEB4A0B3CF009004A8209BED1C00AE15CA43780132FF380320348EF7009075FD0A005439C6501C746AB0EFC4F65D0660E702
310
8D4BB41CBBCB0242E0DE900944D1E639005027FCAA5F2740AF5516400B90A1B70E6027BAF6BA0057461388EE2A0BA02A216EFFD913385993872339630780DDE8DA0B40D99DC7DE5D02206203BF773F01308DFDEABA1D67D98A0D0040FB6AF4AF0B80873E42B2171584F34D02D82A8464A1215B8074E4E8AC050CBB80492F65
310
7EB1006A76A2BC5E5CF20A0BC8F609AA27F57F41E8D6BCE4ED18500F00F6AFF210BECB0076568438EEA7327E0B09BAA99300B61815B26E0100408B60025EDAA71D08ED01A8E457D3C73100A9948F38E7BB000090CC16904375B283ED65FA9F1413CE16EF05A0C77EBF00A8440F80D6004496870408CAA3AE213A57362B22CE
310
3100F1E60C802DDE108564A2DC938320C86768B8520190FBC75960D323789CF3D5B240082700D8A47A00C03B3319F62E5DBE07803CE55D5198CAA3054016C8F73F44D53F59E59C050C0280EE33822D0204D3E82000D1E1D44ED2D7228DC92C240053DF3B9C9F3400C8D76701380290173D92111C01C0CC1672F548866C00C4
310
00B92F3ACC029CB773FF22762F3B8843CFCC1E221D445E3ED425CA8090153B0640C11053400842DBB6054052CF009C2D95BB98C8441C09D0CB245BC510845DC058410038670116C0CE8208AC41D1E9205CBF0FC0AE0BD0542FF724A541B2006C8EEB7700188A01F1184042A06E24E9D2CE026893349A496F4C5FEE0D82F534
310
D8050006E694BBE876748D037CE5158E2882980C255B5898064F0210261064746A0090951DB89105009321B480E09405D866072C606424D80920E92000B0D3561AB7952B6BCB180484F13B7C2D9ACBB1B94883B703C0C578353AEE06501570A0220D46D59C889FC59AE045B3C13E0B7059FB68E707174D8729D1D9D684F67C
310
B535EB01870012825818413009A957D2A84A4C8642B202D37B0A05A32EC0554FAD0815B24501EFD50D7234A0189488FDE32C60FAEEA6B300740E2E501DE3CD0170261408003DB58B2E60E76B8BA2F6E55016E0EE9D5B15AED453A100DACEA3E361046A58510F56385EAAB8C01DFB028D7A3EA21150F379743C8A407AB83D28
310
4E410FE93683053845A675E9333B4315C9D0C90F4416C84ACC1190FD34C94A748E7A380460E7D2530072F9C421C3103D9D300239B854EFB959A9FFE300700289D150006023184540C1BAE2AFAC3E40C05E3C03C0E345A91B5E5880F58383674B445F2058D74F49FD5702E8B8759CFDF2DBCD1F5049A82F8C60EFB992B23B8D
310
8B47230B1E9171D3007248848410737F941FB41FABE816DF7AFB0400BCD7FA8E6CFF7030B40864F519183D00DC4D0068F0A3DB81942847EF140A44F7871CA2B8A8D76F9DB600B71440F1848C016047C7D608A0914904DE089F806B51085B0C4029283CCF81AFAB6962110ABC686AAC9BBA780B000F12FB652608D61AC18410
310
55670502A5F29C1F54046F0BC5A2225F1C0A4DE3AF0020D7FDE05446E0CD33A493A1A025E49ACD7CD3BC9A4CDF570088C59A592514E41E5D098083838D1687C22A501C3D05A0582BA846C3D4EB697D0BF1FC62B45502102F038008A0714F08DC8C75DD24D702C050E0690C48D96262CDEC16B91A00FA8158359B9C25DE2497
310
03203F2004EFF683050078DC47C518C1C9EE5E2F2701C45803C0A14016BCCA0F1A9F2C6C7E3A71BFE03900AE6E01AE4C891722D8055041B05F4E00885702E094284A5228B8C4138EEE7CBDBC3DBACA0236C9A14014E594A823C6DCD8F0FD006A130460A073C6B5F38331590BA01D0A228C1CC54479E2E217C8690047528602
310
4220755E4EA0BD41B41840E9070EA7E3C52CF10841E57CB54E712CCA670F1C3D8394DEAC0750D951A69468CA1D20189CE90A3100B2FFE5373700B00844DA1D5B2AE875125D2EB30E9C7E1B00D60ED54D28682268564F120FA4DE4A4ABCE2D133F1C19BB32B4223D2582D290DAFE1D63D00C49C5C48BA44E0894BCC4BD97703
310
D85B3052A5AA4EECD5DE434B40036F8F2517A02799625E11BE1D004439FDACA03682AC7B0D81570FC434457A371F8AB94D54F139008840758E10788E1325824E0059075935F8FCE4393C5BEF834B7F28E0DE0CC0396B04E807B0D12E8686BA5A2780528974E37FF5CFBAE6BD90F82080D20F2266E9E8A4E2763FA513401953
310
9303C0338808E09120C85DB2D19043815D48A11AFD00AC1A1ED260BE5202F04C1A549D2A4605321A96048600D8A1457EAB00A88110025839122CA54C891A81297DCE026824E86A00E223006AA302973F3A8AC150D94177102C63403E28B47E0780C6C04874750A402C940095036BEDEF9E0D36C5848294B002215004BA0742
310
45196823F03BF36D200F02D0A1C0734A84918106D03F14D697F078214756F71E00D20FC059D3172A6CE2E5F6520A098773A19A02E552C1AB003002B15A20FC00E174CD86E7D6342D80BEED962B0554E43EA50F88468AD64B170BDF00A0D84080A8CD08165EBB00D0B9DF74B1D4F6500A3F5822CFC7009043048B20BC0640B9
310
7C5E225871D50A80FB1D00C43E61A410C445086A00F0DC8FF9BB5E6841CC8B21BCC871B701C8B7FD87FEDE2780408D0A685F7D45347C1B807A289847504F6AC2AB2B1B238FC50090D676AA42D08BA10340B122F4600C00A90D8CC44479241AB60010830600F3A31FB78B4110A5A13A3A353038685AF34B01E850804B2541AD
310
1A0E3D5B3204E0E118008233579B0F68ED98F750CE5CE69955E13EB1B738190120F01C093E17408120C244193FAE29D692F665E79BEDDE0DA0B27C1E71C1884F1FFA815E2A89E61199770328B27EF6031A18A1264D046610E108C0D0C6C8DE4862B9D452629E22A95DE42A01D00C22071C737A6FB0673AFC2880068208A1C0
310
73A91201DC78F5D1F4BC0DFBA70094A1C0D1A840EA5C20806D260882A0DF0C80E7A5B69D1AD4D8502EFFCB629B8C00D8193C1FC842F5B38AC55E62C0BDC4BC9358C6000D00DE1E01D88E4A95F0A733E9471FE14CFAC3276F1830977B89B9F3ED99019AF48700683C59C11FDE2F428001900F6CB5E423327FC5054045576CA7
310
262FA82108FA4B47B7EFA28267A4420F006C8615D327D002CA724B458602DC4E4D1610C911B8AC7501FABCF85D16306125C755EC76AACB03235E256803883D008A1E555ED1BB7D0B18F7932EB2663B35753B44A7C2432E68D2A023001D6950F549F70E154617287F2974B51002B8E7FC5C8D2E568C0306008CCB1D9AB36EFC
310
D5BAF0F0406536E0E550383F1EE8FAD2A094132EB05468130536936A8F17E21C88A68F431600ADF03B0B805CC0B23072F045FB7355F0E627005E1C91651CCF9C226DB41FCC0617B8C0A136EA01964E0014ECBD6F2E09818AF49C01ED38AAF5005E6F6E07C153161043F40D2900E032CD6115A96673318497D2E411BFBF2274
310
2D8088CB11D59966B5DB5CA556A3ACE2DB0470BCC46775024D976B01B8C2056265367E000026F8AD6F426DE8B9671B8501E9B2FB009CAB8D03F291630B28A622C7EAE0124FEBBB709B4B9F7500D5233A665C68019634F5BEF16D99F60E610101A0ACD102D0B1365E9712802DD11E07180B30EAC855587135D5E77A15EFF84B
310
766D8D51FD0EA52F08F22B3EC300F0BDEE2AE620B528ADF5B103374F35428464A51E6CBE15C0B838195FF2E42CB236BC20D70200F33951856BF86A8D35006C8991A1B04AAF7932820610693D8AA50090AA1866B701D81B0AF32BF1AEE902E4CD5169539A8052276B0B1F2AC79FDEC1132B01AC180ACB00207F8FA20340FE02
310
BA8037E661005B89E32C50399B7EC3266BED233902AA03CAF83A0007DF5E5D02680D79CFC81A00C29D61BDAA4240AB836922DD7A0F5F554EA79E0230E902B0048B2140BD0C0107394A1DB5761B43303F16F500002A514C8B0E83A030E764C9FC636274AE5487473EDBD25DDECEC54358F2CF58807468277E4A50E95F8D01E0
310
02F0192FCE1B7702B025E68260FA07948EF52CD00C82D49D6782A02D31B526C8E300C769509CC9D200E0F2277DDF9006CFB9C0D44008870EDA66EE04604BCCAD0A4B02037301AA636A3C600154A27B3A6CDA4DFF0A00628E80620088D9206410311DACD5B84296AD0AC38DE3BBA91749B23A6A35C02BBFA99ACC1F7201317E
310
43555CF1D957BB2224D650442BAAC6813AE3B2706788BE5D9F96C46A1B17A68AD3558CFE7FC905446FC5CFA81AA3AF744755B1FA2F05200D6F52CC12276ECE8E2D8B7395DE65F15352AC089D11BBC8096DAFDD1839299702685C62649F6BBACA74EFD60358B33B7C95DC01E0D5A2017CA3FC310BE85188CAB6DA306F04804F
310
90AF07302A04E0DD8FCB77CBB8054401E013E4EB018C8A9D0CFD75E9B000535E02F804F97A00A3C2003EC1016684003CDD91A744D841547650D8CA279FF852FF67F97A00FF03E30D074628D962D90000000049454E44AE426082
  0
ENDSEC
  0
EOF
